Log in

One click and you are in

Login with Facebook Login with Google

Why sign up and log in

Guitar Tabs Explorer
Judas Priest tabs for Dissident aggressor

Guitar tabs with lyrics

Dissident Aggressor
Judas Priest
from 1977's Sin After Sin


Tuning: A chord diagramE MajorE Standard

This is my first tab and I've tried to be as accurate as possible, but it's the way I play.
Intro (0:11)
 PM--------------------------------------------------------|
 E---------------------------------------------------------|
 B---------------------------------------------------------|
 G---------------------------------------------------------|
 D---------------------------------------------------------|
 A---------------------------------------------------------|
 E-0-0-0-0-0-0-0-0-0-0-0-0-0-0-0-0-0-0-0-0-0-0-0-0-0-0-----|
 slowly fading in


Main Riff (0:36),(1:18)  x7
       PM----|    PM----|     PM-------------------|    PM
 E-------------------------------------------------|
 B-------------------------------------------------|
 G-------------------------------------------------|
 D-------------------------------------------------|
 A-------------------------------------------7-----|
 E-3h0-0-0-0-0-5h0-0-0-0-0-3h0-0-0-0-0-3h0-0-5-----|


Pre-Chorus Riff (1:00), (1:28)
      PM-----|    PM-----------------------------|
 E-----------------------------------------------|
 B-----------------------------------------------|
 G-----------------------------------------4-----|
 D----------------------------------5-4-2--------|
 A-----------------------------------------------|
 E-3h0-0-0-0-0-5h0-0-0-0-0--3---2----------------|

Chorus (1:04), (1:32)  x2
     PM------|   PM-------|  PM--------------------|
 E-------------------------------------------------|
 B-------------------------------------------------|
 G-------------------------------------------------|
 D-7/9-9-9-9-9-7/9-9-9-9-9-7/9-9-9-9-9-------------|
 A-5/7-7-7-7-7-5/7-7-7-7-7-5/7-7-7-7-7-------------|
 E-------------------------------------5--6--7-----|

     PM------|   PM---------------------------|
 E--------------------------------------------|
 A--------------------------------------------|
 D--------------------------------------------|
 G-7/9-9-9-9-9-7/9-9-9-9-9--------------5-----|
 A-5/7-7-7-7-7-5/7-7-7-7-7-------5----5-------|
 E-------------------------5-6-7----7---------|

End of second chorus, before solo (1:46)

 E------------------|
 A------------------|
 D-------------5----|
 G-------5---5------|
 A-5-6-7---7--------|
 E------------------|

The solo is basically just K.K. Downing messing around with a wah pedal for about 24
bars, so I'm not going to tab it because I do not own a wah pedal, and even if I did it
would still be difficult.
Also, the rhythm guitar during the solo is just the chorus riff played four times,
excluding the riff at 1:46.


Bridge (2:15) x2
         PM----------|       PM----------------------------------|
 E---------------------------------------------------------------|
 B---------------------------------------------------------------|
 G---------------------------------------------------------------|
 D-9-7-9---------------9-7-9---------------9-7-9--4-5----7-6-----|
 A-7-5-7---------------7-5-7---------------7-5-7--2-3----5-4-----|
 E-------0-0-0-0-0-0-0-------0-0-0-0-0-0-0-----------------------|


Outro (2:56)

E----------------------------------------------------------------------|
B----------------------------------------------------------------------|
G------------------------------5---------------------------------------|
D--------------5--------5----5----------------5-------5------------2---|
A-------5----5----5-6-7----7------------5---5---5-6-7---7-------5--2---|
E-5-6-7----7----------------------5-6-7---7---------------5-6-7----0---|
                                                                  end

Order Song Follows:


Intro

Verse 1

Chorus 1

Verse 2

Chorus 2

Solo

Bridge

Verse 3

Chorus 3

Outro
End

🏷Legend
PM = Palm Mute
h = Hammer-on
/ = Slide Up

Almost there ...

Sign in to get your own page with links to favourite songs and more. You are just one click away...

Login with Facebook Login with Google