Search tabs and chords

Search for song, artist or band

Log in

One click and you are in

Login with Facebook Login with Google

Why sign up and log in

Guitar Tabs Explorer
Juan Karlos Labajo guitar tabs for Para sayo

Guitar tabs with lyrics

-------------------------------------------------------------------------------
                         PARA SA'YO - Juan Karlos Labajo
-------------------------------------------------------------------------------

Tuning:Standard
CAPO 2nd fret

INTRO:
Cadd9 chord diagramCadd9Cadd9 Em7 chord diagramEm7Em7 Dsus4 chord diagramDsus4Dsus4-D chord diagramDD
Asus7 chord diagramAsus7Asus7 C chord diagramCC D chord diagramDD
e|--------3---3------3---3------3---3-----2---2------------------------------|
B|------3---3------3---3------3---3-----3---3--------------------------------|
G|---------------------------------------------------------------------------|
D|---------------2----------0---------0--------------------------------------|
A|----3----------------------------------------------------------------------|
E|---------------------------------------------------------------------------|

e|--------3---3-----3---3---2------------------------------------------------|
B|------3---3-----3---3------------------------------------------------------|
G|---------------------------------------------------------------------------|
D|--------------------------0------------------------------------------------|
A|----0---------3------------------------------------------------------------|
E|---------------------------------------------------------------------------|

VERSE:

e|--------3---3------3---3------3---3-----2---2------------------------------|
B|------3---3------3---3------3---3-----3---3--------------------------------|
G|---------------------------------------------------------------------------|
D|---------------2----------0---------0--------------------------------------|
A|----3----------------------------------------------------------------------|
E|---------------------------------------------------------------------------|
       Mga  lumuluhang  mata

e|--------3---3------3---3------3---3-----2---2------------------------------|
B|------3---3------3---3------3---3-----3---3--------------------------------|
G|---------------------------------------------------------------------------|
D|---------------2----------0---------0--------------------------------------|
A|----3----------------------------------------------------------------------|
E|---------------------------------------------------------------------------|
     Kalungkutan na hindi matago-tago


e|--------3---3------3---3------3---3-----2---2------------------------------|
B|------3---3------3---3------3---3-----3---3--------------------------------|
G|---------------------------------------------------------------------------|
D|---------------2----------0---------0--------------------------------------|
A|----3----------------------------------------------------------------------|
E|---------------------------------------------------------------------------|
      Sa isang tingin akala mo ay okay lang


e|--------3---3-----3---3---2------------------------------------------------|
B|------3---3-----3---3------------------------------------------------------|
G|---------------------------------------------------------------------------|
D|--------------------------0------------------------------------------------|
A|----0---------3------------------------------------------------------------|
E|---------------------------------------------------------------------------|
   Andito      lang        ako


CHORUS:

e|--------3---3------3---3------3---3-----2---2------------------------------|
B|------3---3------3---3------3---3-----3---3--------------------------------|
G|---------------------------------------------------------------------------|
D|--------------------------0---------0--------------------------------------|
A|----2----------3-----------------------------------------------------------|
E|---------------------------------------------------------------------------|x2
  Para sa'yo x2


VERSE2:

e|--------3---3-------3---3------3---3-----2---2-----------------------------|
B|------3---3-------3---3------3---3-----3---3-------------------------------|
G|---------------------------------------------------------------------------|
D|----------------2----------0---------0-------------------------------------|
A|----3----------------------------------------------------------------------|
E|---------------------------------------------------------------------------|
       Akala mo hindi ko pansin


e|--------3---3------3---3------3---3-----2---2------------------------------|
B|------3---3------3---3------3---3-----3---3--------------------------------|
G|---------------------------------------------------------------------------|
D|---------------2----------0---------0--------------------------------------|
A|----3----------------------------------------------------------------------|
E|---------------------------------------------------------------------------|
     Ikaw lang naman itong hindi umaamin


e|--------3---3----------3---3------3---3-----2---2--------------------------|
B|------3---3----------3---3------3---3-----3---3----------------------------|
G|---------------------------------------------------------------------------|
D|-------------------2----------0---------0----------------------------------|
A|----3----------------------------------------------------------------------|
E|---------------------------------------------------------------------------|
      Huwag nang mabagabag sa  kahahantungan


e|--------3---3-----3---3---2------------------------------------------------|
B|------3---3-----3---3------------------------------------------------------|
G|---------------------------------------------------------------------------|
D|--------------------------0------------------------------------------------|
A|----0---------3------------------------------------------------------------|
E|---------------------------------------------------------------------------|
   Andito      lang        ako


CHORUS2:

e|--------3---3------3---3------3---3-----2---2------------------------------|
B|------3---3------3---3------3---3-----3---3--------------------------------|
G|---------------------------------------------------------------------------|
D|--------------------------0---------0--------------------------------------|
A|----2----------3-----------------------------------------------------------|
E|---------------------------------------------------------------------------|x4
  Para sa'yo x4


VERSE3:

e|--------3---3--------3---3------3---3-----2---2----------------------------|
B|------3---3--------3---3------3---3-----3---3------------------------------|
G|---------------------------------------------------------------------------|
D|-----------------2----------0---------0------------------------------------|
A|----3----------------------------------------------------------------------|
E|---------------------------------------------------------------------------|
      Pwede mong sabihin sa   akin


e|--------3---3------3---3------3---3-----2---2------------------------------|
B|------3---3------3---3------3---3-----3---3--------------------------------|
G|---------------------------------------------------------------------------|
D|---------------2----------0---------0--------------------------------------|
A|----3----------------------------------------------------------------------|
E|---------------------------------------------------------------------------|
       Mga bagay-bagay na   alanganin


e|--------3---3------3---3------3---3-----2---2------------------------------|
B|------3---3------3---3------3---3-----3---3--------------------------------|
G|---------------------------------------------------------------------------|
D|---------------2----------0---------0--------------------------------------|
A|----3----------------------------------------------------------------------|
E|---------------------------------------------------------------------------|
      Nandito    lang ang balikat     ko


e|--------3---3-----3---3--------3---3-----2---2-----------------------------|
B|------3---3-----3---3--------3---3-----3---3-------------------------------|
G|---------------------------------------------------------------------------|
D|--------------------------0----------0-------------------------------------|
A|----0---------3------------------------------------------------------------|
E|---------------------------------------------------------------------------|
   Nandito      lang        ako



CHORUS3:

e|--------3---3------3---3------3---3-----2---2------------------------------|
B|------3---3------3---3------3---3-----3---3--------------------------------|
G|---------------------------------------------------------------------------|
D|--------------------------0---------0--------------------------------------|
A|----2----------3-----------------------------------------------------------|
E|---------------------------------------------------------------------------|x4
  Para sa'yo x4

BRIDGE:

e|--------3---3------3---3------3---3-----3---3------------------------------|
B|------3---3------3---3------3---3-----3---3--------------------------------|
G|---------------------------------------------------------------------------|
D|---------------------------------------------------------------------------|
A|----0----------0----------3---------3--------------------------------------|
E|---------------------------------------------------------------------------|
Huwag nang malungkot    Kalimutan and galit


e|--------3---3------3---3------3---3-----3---3------------------------------|
B|------3---3------3---3------3---3-----3---3--------------------------------|
G|---------------------------------------------------------------------------|
D|---------------------------------------------------------------------------|
A|---------------------------------------------------------------------------|
E|----3----------3----------2---------2--------------------------------------|
Na nadarama     Bibigyan kita nang halaga

e|--------3---3------3---3------3---3-----3---3------------------------------|
B|------3---3------3---3------3---3-----3---3--------------------------------|
G|---------------------------------------------------------------------------|
D|---------------------------------------------------------------------------|
A|----0----------0----------3---------3--------------------------------------|
E|---------------------------------------------------------------------------|
Huwag nang umiyak, hindi kita  pababayaan


e|--------3---3------3---3------3---3-----3---3----|---3---------------------|
B|------3---3------3---3------3---3-----3---3------|---3---------------------|
G|-------------------------------------------------|-------------------------|
D|-------------------------------------------------|-------------------------|
A|-------------------------------------------------|-------------------------|
E|----3----------3----------2---------2------------|---2---------------------|
    Pangako   andito lang ako


CHORUS4:

e|--------3---3------3---3------3---3-----2---2------------------------------|
B|------3---3------3---3------3---3-----3---3--------------------------------|
G|---------------------------------------------------------------------------|
D|--------------------------0---------0--------------------------------------|
A|----2----------3-----------------------------------------------------------|
E|---------------------------------------------------------------------------|x4
  Para sa'yo x4


INSTRUMENTAL:

e|--------3---3------3---3------3---3-----2---2------------------------------|
B|------3---3------3---3------3---3-----3---3--------------------------------|
G|---------------------------------------------------------------------------|
D|--------------------------0---------0--------------------------------------|
A|----2----------3-----------------------------------------------------------|
E|---------------------------------------------------------------------------|x2

CHORUS5:

e|--------3---3------3---3------3---3-----2---2------------------------------|
B|------3---3------3---3------3---3-----3---3--------------------------------|
G|---------------------------------------------------------------------------|
D|--------------------------0---------0--------------------------------------|
A|----2----------3-----------------------------------------------------------|
E|---------------------------------------------------------------------------|x2
  Para sa'yo x2


OUTRO:

e|--------3---3------3---3------3---3-----2---2------------------------------|
B|------3---3------3---3------3---3-----3---3--------------------------------|
G|---------------------------------------------------------------------------|
D|---------------2----------0---------0--------------------------------------|
A|----3----------------------------------------------------------------------|
E|---------------------------------------------------------------------------|
       Mga  lumuluhang  mata


e|--------3---3------3---3------3---3-----2---2------------------------------|
B|------3---3------3---3------3---3-----3---3--------------------------------|
G|---------------------------------------------------------------------------|
D|---------------2----------0---------0--------------------------------------|
A|----3----------------------------------------------------------------------|
E|---------------------------------------------------------------------------|
     Kalungkutan na hindi matago-tago


e|--------3---3------3---3------3---3-----2---2------------------------------|
B|------3---3------3---3------3---3-----3---3--------------------------------|
G|---------------------------------------------------------------------------|
D|---------------2----------0---------0--------------------------------------|
A|----3----------------------------------------------------------------------|
E|---------------------------------------------------------------------------|
      Sa isang tingin akala mo ay okay lang

e|--------3---3-----3---3---2------------------------------------------------|
B|------3---3-----3---3------------------------------------------------------|
G|---------------------------------------------------------------------------|
D|--------------------------0------------------------------------------------|
A|----0---------3------------------------------------------------------------|
E|---------------------------------------------------------------------------|
   Andito      lang        ako


************************************

| /   slide up
| \   slide down
| h   hammer-on
| p   pull-off
| ~   vibrato
| +   harmonic
| x   Mute note
| b   Bend
| pb  Pre-bend
| br  Bend release
| pbr Pre-bend release
| brb Bend release bend

Other versions of Para Sayo

Para sayoChords

Almost there ...

Sign in to get your own page with links to favourite songs and more. You are just one click away...

Login with Facebook Login with Google