Log in

One click and you are in

Login with Facebook Login with Google

Why sign up and log in

Guitar Tabs Explorer
Juan Karlos Labajo guitar chords for Buwan ukulele

Guitar chords with lyrics

Tuning: G C E A (G C E A)

Key: G

Difficulty: Intermediate
Intro:

A|------2-1-0----2-|
E|---------------3-|
C|-1/2--------2--2-|
G|---------------0-|


Verse 1:
                    Cmaj7   F#dim/C
Ako'y sayo, ikaw ay akin
                G *Gmaj7 G7
Ganda mo sa paningin
                 Cmaj7  F#dim/C
Ako ngayo'y nag iisa
                G *Gmaj7 G7
Sana ay tabihan na


Chorus:
               Cmaj7        F#dim/C
Sa ilalim ng puting ilaw
             G *Gmaj7 G7
Sa dilaw na buwan
                  Cmaj7   F#dim/C
Pakinggan mo ang aking sigaw
             G *Gmaj7 G7
Sa dilaw na buwan

Verse 2:
                     Cmaj7    F#dim/C
Ayaw kong mabuhay ng malungkot
                    G *Gmaj7 G7
Ikaw ang nag papasaya
                          Cmaj7    F#dim/C
At makakasama hanggang sa pag tanda
                    G *Gmaj7 G7
Hali na tayo'y humiga


Chorus:
                Cmaj7        F#dim/C
Sa ilalim ng puting ilaw
             G *Gmaj7 G7
Sa dilaw na buwan
                  Cmaj7   F#dim/C
Pakinggan mo ang aking sigaw
             G *Gmaj7 G7
Sa dilaw na buwan


Instrumental:
Cmaj7 F#dim/C G Gmaj7 G7

A|-----------------------------------|
E|-----------3------3---5--7---b7-5--|
C|-2h3p2\1/2------2---3----0-0----0--|
G|-----------------------------------|

A|----------------------5----3-2-0-----3---2h3p2---|
E|------------5h7p5-4/5-5----------5/7---5-------3-|
C|-0-0-2~------------------------------------------|
G|-------------------------------------------------|

A|----------5---7---10-10/14--12-b14-12~--7-9-10---------------------------------------------10----10-12/14~-|
E|----3-5/7---7---7---7-------------------------7--7-8-10-------------------5/7b-7/10b--10h12-10h12----------|
C|-2/4---------------------------------------------------7-----7----7----7-----------------------------------|
G|----------------------------------------------------------4-5--4-5--4-5------------------------------------|


Bridge:
    C        D7      G   Gmaj7  G7
At iyong ganda'y, umaabot sa buwan
      C       D7            G   Gmaj7 G7
Ang tibok ng puso'y, tinig sa kalawakan
            C             D7               G        Gmaj7      G7
At kung mabalik, dito sa akin, ikaw ang mahal, ikaw lang ang mamahalin
      C                   D7
Pakinggan ang puso't damdamin
                  G *Gmaj7 G7
Damdamin aking damdamin


Chorus:
               Cmaj7        F#dim/C
Sa ilalim ng puting ilaw
             G *Gmaj7 G7
Sa dilaw na buwan
                  Cmaj7   F#dim/C
Pakinggan mo ang aking sigaw
             G *Gmaj7 G7
Sa dilaw na buwan
C       D
Ta Taaaa
N.C.            Cmaj7        F#dim/C
Sa ilalim ng puting ilaw
             G *Gmaj7 G7
Sa dilaw na buwan
                  Cmaj7   F#dim/C
Pakinggan mo ang aking sigaw
             G *Gmaj7 G7
Sa dilaw na buwan


************************************

| /  Slide up
| b  Bend
| h  Hammer-on
| p  Pull-off
| \  Slide down
| ~  Vibrato

************************************

Almost there ...

Sign in to get your own page with links to favourite songs and more. You are just one click away...

Login with Facebook Login with Google