Log in

One click and you are in

Login with Facebook Login with Google

Why sign up and log in

Guitar Tabs Explorer
Juan Karlos Labajo guitar tabs for Buwan

Guitar tabs

  • Tuning: Standard tuning
  • Difficulty: Intermediate
Solo:
e|---------------------------------------------------------------------------|
B|---------8---8---8-10b-12b-10\---------------------------------------------|
G|-7h8p7s6---8---8-----------------------------------------------------------|
D|---------------------------------------------------------------------------|
A|---------------------------------------------------------------------------|
E|---------------------------------------------------------------------------|
e|---------------10--8-7--------8-----7h8p7----------------------------------|
B|-10h12p10s9-10---------10-10b---10--------8\-------------------------------|
G|---------------------------------------------------------------------------|
D|---------------------------------------------------------------------------|
A|---------------------------------------------------------------------------|
E|---------------------------------------------------------------------------|


e|--------------------------15-17b-19-19b--17\-------------------------------|
B|--------------15----17-----------------------------------------------------|
G|-----12-14s16----16----16--------------------------------------------------|
D|-/14-----------------------------------------------------------------------|
A|---------------------------------------------------------------------------|
E|---------------------------------------------------------------------------|


e|-12-14-15------------------------------------------------------------------|
B|----------12---12-13-15----------------------------------------------------|
G|------------------------12\------------------------------------------------|
D|---------------------------------------------------------------------------|
A|---------------------------------------------------------------------------|
E|---------------------------------------------------------------------------|


e|---------------------------------------------------------------------------|
B|---------------------------------------------------------------------------|
G|--------12------12------12~------------------------------------------------|
D|-0-9-10----9-10----9-10----------------------------------------------------|
A|---------------------------------------------------------------------------|
E|---------------------------------------------------------------------------|


e|--------------------------------19~---19~---19~----------------------------|
B|-----------------17-20----17-20--------------------------------------------|
G|-14brp12-16b--19-------19--------------------------------------------------|
D|---------------------------------------------------------------------------|
A|---------------------------------------------------------------------------|
E|---------------------------------------------------------------------------|

************************************

| b  Bend
| \  Slide down
| h  Hammer-on
| p  Pull-off
| /  Slide up
| ~  Vibrato

************************************

Other versions of Buwan

BuwanChords
Buwan acousticChords
Buwan ukuleleChords
Buwan (Ver. 2)Tabs
Buwan acousticTabs

Almost there ...

Sign in to get your own page with links to favourite songs and more. You are just one click away...

Login with Facebook Login with Google