Search tabs and chords

Search for song, artist or band

Log in

One click and you are in

Login with Facebook Login with Google

Why sign up and log in

Guitar Tabs Explorer
Juan Karlos Labajo bass tabs for Buwan

Bass tabs

Tuning: Standard (E A D G)

Difficulty: Novice

Starts at 1:04

Chorus:

G|------------------------|------------------------|
D|------------------------|------------------------|
A|--0-3--0-3/5---5--------|--3---5-----------------|
E|-----------------3---3--|----------3---3---------|
Verse 2: 1:31

G|------------------------|------------------------|
D|------------------------|------------------------|
A|--/5-3--0-3--0-3/5------|--0-5---5---------------|
E|------------------------|----------3---3-3--3-3--|

G|------------------------|------------------------|
D|------------------------|------------------------|
A|------2-3—-0-3--3-5--5--|--5\--------5-----------|
E|--3-3-------------------|----3--3-3----3-3-------|


Chorus: 2:00

G|------------------------|------------------------|
D|--------5/7-5-----------|------------------------|
A|--3/5-3-------3--0-3----|--3-5--0-5-5—5\---------|
E|------------------------|---------------3--------|
.

G|------------------------|------------------------|
D|------------------------|------------------------|
A|-----------------5-3----|--0-3--3-5--0-5--5\-----|
E|--3-3--3-3--3-3---------|-------------------3----|

G|------------------------|
D|---------5--------------|
A|------------------------|
E|--3-3--3----------------|

Interlude: 2:33

G|------------------------|------------------------|
D|------------------------|------------------------|
A|--0-3--0-3--3-5--0-5-5--|--5---------------------|
E|------------------------|----3--3-2--3-0---------|

G|------------------------|------------------------|
D|------------------------|------------------------|
A|--0-5-2-0-3--3-3--3-5---|--0-5-5--5--------------|
E|------------------------|-----------3--3-3--3----|
.               .

G|------------------------|
D|------------------------|
A|------------------------|
E|--3-3-3-3-3-3-3-3-------|


Bridge: 3:03

G|------------------------|------------------------|
D|------------------------|------------------------|
A|--3-3--0-3-3--3-5-5--5-5|--5---------------------|
E|------------------------|----3--2-3-3--0---------|
.      .    .            .

G|------------------------|------------------------|
D|------------------------|------------------------|
A|--0-5-5-0-2--0-3--0-3-3-|--3-5--0-5-5--5---------|
E|------------------------|----------------3--3-2-2|
.             .           .

3:30
G|------------------------|------------------------|
D|------------------------|------------------------|
A|----7-7-7-7-5-5-5-0-----|--3-3-3-3-3-3-3-3-------|
E|--2/--------------------|------------------------|
. . . . . . . .

G|------------------------|------------------------|
D|------------------------|------------------------|
A|--5-5-5-5-5-5-5-5\------|------------------------|
E|------------------------|--3-3-3-3-2-2-2-2/12----|
. . . . . . . .          . . . . . . . .

G|------------------------|------------------------|
D|------------------------|------------------------|
A|------------------------|--3-3-3-3-3-3-3-3/7-----|
E|--12-12-12-10-10-12-10--|------------------------|
. . . . . . . .

G|------------------------|------------------------|
D|------------------------|------------------------|
A|--5-5-5-5-5-5-5-5-------|------------------------|
E|------------------------|--3-3-3-3-33-3-3-3-33---|
. . . . . . . .          . . .

G|------------------------|
D|------------------------|
A|-------------/10--------|
E|--3-3-3-33-3------------|


Chorus: 4:04

G|------------------------|------------------------|
D|------------------------|------------------------|
A|--3-3-3-3-33-3-3-3------|--55-5-5-5-55-5-5-5-----|
E|------------------------|------------------------|

G|------------------------|------------------------|
D|------------------------|------------------------|
A|------------------------|-----------5-5-2-2------|
E|--33-3-3-3-22-2-2-2-----|--00-0-0-0--------------|

G|------------------------|------------------------|
D|------------------------|------------------------|
A|--3-3-3-3-33-3-3-3------|--55-5-5-5-55-5-5-5-----|
E|------------------------|------------------------|

G|------------------------|------------------------|
D|------------------------|------------------------|
A|------------------------|------------------------|
E|--33-3-3-3-33-3-3-3-33--|--3-3-3-33-3-5-7--------|
.

G|------------------------|------------------------|
D|------------------------|------------------------|
A|--3-3-3-3-3-3-3-3-3-----|--5-5-5-5-5-------------|
E|------------------------|------------------------|


Final Chorus: 4:44

G|------------------------|------------------------|
D|------------------------|------------------------|
A|--------3-3-3-3-33-3-3-3|--55-5-5-5-55-5-5-5-----|
E|-5/10\5-----------------|------------------------|

G|------------------------|------------------------|
D|------------------------|------------------------|
A|------------------------|-----------5-5-2-2------|
E|--33-3-3-3-22-2-2-2-----|--00-0-0-0--------------|

G|------------------------|------------------------|
D|------------------------|------------------------|
A|--3-3-3-3-33-3-3-3------|--55-5-5-5-55-5-5-5-----|
E|------------------------|------------------------|

N----------|
G|------------------------|------------------------|
D|------------------------|------------------------|
A|------------------------|-----------555555555555-|
E|--33-3-3-3-22-2-2-2-----|--00-0-0-0--------------|


Outro: 5:15

G|------------------------|------------------------|
D|------------------------|------------------------|
A|--3-3-3-3-3-3-3-3/7-----|--5-5-5-5-5-5-5-5-------|
E|------------------------|------------------------|
. . . . . . . .          . . . . . . . .

G|------------------------|------------------------|
D|------------------------|------------------------|
A|------------------------|------------------------|
E|--3-3-3-3-2-2-2-2/12----|--12-12-14-12-10-10-7-7-|
. . . . . . . .

G|------------------------|------------------------|
D|------------------------|------------------------|
A|--3-3-3-3-3-3-3-3/7-----|--5-5-5-5-5-5-5-5-------|
E|------------------------|------------------------| to fade
. . . . . . . .          . . . . . . . .


***********************************

| \   Slide down
| /   Slide up
| N   Tremolo
| .   Staccato

***********************************

Almost there ...

Sign in to get your own page with links to favourite songs and more. You are just one click away...

Login with Facebook Login with Google