Log in

One click and you are in

Login with Facebook Login with Google

Why sign up and log in

Guitar Tabs Explorer
Juan Karlos Labajo guitar tabs for Buwan acoustic

Guitar tabs

Tuning: Standard (E A D G B E)

Key: A chord diagramC majorC

Difficulty: Intermediate


Intro:

e|---7------7---5------5---3------3---2---0---2----|
B|---5---5------0---0------0---0------0------------|
G|---5----------0-----------0-----------0----------|   x2
D|---7-----------------------2----------2----------|
A|-------------------------------------------------|
E|---------------0---------------------------------|

e|----------------------5--------------5---------------5-----------------|
B|---------------5---------5--------------5---------------5--------------|
G|-----------5-----5----------5--------------5--------------5------------|
D|-------7------------------------7---------------7------------7---------|
A|---0-------------------------------------------------------------------|
E|-----------------------------------------------------------------------|

e|--------------------------------0-----------------------------------0--|
B|-----------------------1----------1-----------------------------1------|
G|-------------------0------0----------0---------------------0-----------|
D|----------------2-------------------------2-------------2--------------|
A|---0---2---3---------------------------------------3-------------------|
E|-----------------------------------------------------------------------|


Verse 1:

e|----------------------------------------------------------------------------------|
B|----------------------------------------------------------------------------------|
G|--0--0--2--2/4--2--0----------0-----------0--------------0--2-----0-------------0-|
D|----------------------4-4--2--2-----------2-----------4-----------4--2--0-------0-|
A|------------------------3-----3--3--3--3--3--3--5--5--5-------5---5---------------|
E|------------------------------------------------------------------------3---3---3-|

e|-----------------1--------|
B|-----------------0--------|
G|-----------0-----0--------|
D|-----------0-----0--------|
A|--------------------------|
E|--3--3--3--3--3--3--------|

e|----------------------------------------------------------------------------|
B|-------0--------------------------------------------------------------------|
G|--0--2---2--0------------0--------------0--------0--2---0-----2--0-------0--|
D|---------------4---4--2--2--------------2--------4---------4-----0----------|
A|-------------------3-----3--3--3--3--3--3--5--5--5----5----5----------------|
E|-------3---------------------------------------------------------3---3---3--|

e|---------7----5----3--------------|
B|----------------------------------|
G|---/4-------------------/7--------|
D|----------------------------------|
A|----------------------------------|
E|----------------------------------|


Chorus:

e|-----------0--3--0--7--------------------------------0h2--2--0----2/3--------3--------|
B|--------------------8----8h10--10--------10----------3---------3--2/3--------3--------|
G|--7--7--7-----------0--------------------------------2-----------------------0--------|
D|-----------------------------------------------0--0--0--------------------------------|
A|--------------------------------------------------------------------------------------|
E|--------------------8--8-----------8--8-----8--------------------------3--3-----3--3--|

e|-----3------1-------------|
B|-----3------0-------------|
G|-----0------0-------------|
D|--------------------------|   x2
A|--------------------------|
E|--3-----3---3-------------|

e|---------7----5----3---------------|
B|-----------------------------------|
G|---/4-------------------/7---------|
D|-----------------------------------|
A|-----------------------------------|
E|-----------------------------------|


Verse 2:

e|----------------------------------------------------------------------------------|
B|----------------------------------------------------------------------------------|
G|--0--0--2--2/4--2--0----------0-----------0--------------0--2-----0-------------0-|
D|----------------------4-4--2--2-----------2-----------4-----------4--2--0-------0-|
A|------------------------3-----3--3--3--3--3--3--5--5--5-------5---5---------------|
E|------------------------------------------------------------------------3---3---3-|

e|-----------------1--------|
B|-----------------0--------|
G|-----------0-----0--------|
D|-----------0-----0--------|
A|--------------------------|
E|--3--3--3--3--3--3--------|

e|----------------------------------------------------------------------------|
B|-------0--------------------------------------------------------------------|
G|--0--2---2--0------------0--------------0--------0--2---0-----2--0-------0--|
D|---------------4---4--2--2--------------2--------4---------4-----0----------|
A|-------------------3-----3--3--3--3--3--3--5--5--5----5----5----------------|
E|-------3---------------------------------------------------------3---3---3--|

e|---------7----5----3--------------|
B|----------------------------------|
G|---/4-------------------/7--------|
D|----------------------------------|
A|----------------------------------|
E|----------------------------------|

After Verse 2 play this as last part…

e|-------3\2---1---------------|
B|--2/3--------0---------------|
G|-------------0---------------|
D|-----------------------------|
A|-----------------------------|
E|-------------3---------------|


Chorus:

e|-----------0--3--0--7--------------------------------0h2--2--0----2/3--------3--------|
B|--------------------8----8h10--10--------10----------3---------3--2/3--------3--------|
G|--7--7--7-----------0--------------------------------2-----------------------0--------|
D|-----------------------------------------------0--0--0--------------------------------|
A|--------------------------------------------------------------------------------------|
E|--------------------8--8-----------8--8-----8--------------------------3--3-----3--3--|

e|-----3------1-------------|
B|-----3------0-------------|
G|-----0------0-------------|
D|--------------------------|   x2
A|--------------------------|
E|--3-----3---3-------------|

e|---------7----5----3---------------|
B|-----------------------------------|
G|---/4-------------------/7---------|
D|-----------------------------------|
A|-----------------------------------|
E|-----------------------------------|


Instrumental:

e|---------------3---3--5--7----8---------------0h2--/5--4h5--10--8--7--5-|
B|--2h3/4\3--2h3---3-------8------10b-------10--3-------------------------|
G|-------------------------0--------------------2-------------------------|
D|----------------------------------------------0--------------0----------|
A|------------------------------------------------------------------------|
E|-------------------------8--8-------8--8--------------------------------|

e|--7--8--5------5/7--3----------0--7--8-------0h2---2/3-----------|
B|--0----------0----------0---0-----8----10-----------------0------|
G|--0----------0----------0---0-----0----------------&-------------|
D|----------------------------2----------------------0----------0--|
A|----------------------------2------------------------------------|
E|----------2-----------0-----0-----8-------8----------------------|

e|-----------3------3-----3-----3---3~--------|
B|--------0-------0-----0-----0-----3~--------|
G|--0h2---------2-----2-----2-------0~--------|
D|----------------------------------0~--------|
A|----------------------------------2~--------|
E|--------3-------------------------3~--------|

Repeat this x2


e|-------3------3--3---3--2----2--2------0------0---------------------|
B|--3--3--------1--1-----------1--1--1/3------3-----3--0-----------0--|
G|----------0---0--0-----------2--2--------------------------------0--|
D|----------2---------------0--------------------------------2--2-----|   x2
A|----------3--------3---------------------------------------2--2-----|
E|------------------------------------------3-----2-------0--------0--|

e|--------------0---------------0---------------2/3-------------3\2---0-----0*neck bend-|
B|--0--0--0--3-------0--0--0--3-----0--0--0--3--2/3---3--0---3--------------0*neck bend-|
G|-------------------0--------------2-----------------0------0--------------0*neck bend-|
D|--------------------------------0-------0---------------------------------------------|
A|----------------3--------3------------------------------------------------------------|
E|--------------------------------------------------3------2----0--------0--------------|

e|--0--0--/3----0--0--/3----0--/3------3~---1~----|
B|--------/3----------/3-------/3------3~---0~----|
G|-------------------------------------0~---0~----|
D|------------------------0------------0~---0~----|
A|------------3------------------------2~---2~----|
E|---------------------------------3---3~---3~----|


Chorus:

e|-----------0--3--0--7--------------------------------0h2--2--0----2/3--------3--------|
B|--------------------8----8h10--10--------10----------3---------3--2/3--------3--------|
G|--7--7--7-----------0--------------------------------2-----------------------0--------|
D|-----------------------------------------------0--0--0--------------------------------|
A|--------------------------------------------------------------------------------------|
E|--------------------8--8-----------8--8-----8--------------------------3--3-----3--3--|

e|-----3------1-------------|
B|-----3------0-------------|
G|-----0------0-------------|
D|--------------------------|   x2
A|--------------------------|
E|--3-----3---3-------------|

e|---------7----5----3---------------|
B|-----------------------------------|
G|---/4-------------------/7---------|
D|-----------------------------------|
A|-----------------------------------|
E|-----------------------------------|


************************************

| /  Slide up
| h  Hammer-on
| \  Slide down
| b  Bend
| ~  Vibrato

************************************

Other versions of Buwan Acoustic

BuwanChords
Buwan acousticChords
Buwan ukuleleChords
BuwanTabs
Buwan (Ver. 2)Tabs

Almost there ...

Sign in to get your own page with links to favourite songs and more. You are just one click away...

Login with Facebook Login with Google