Guitar Tabs Explorer
Juan Karlos Labajo guitar tabs for Buwan (Ver. 2)

Buwan tab


Be the first to rate

Buwan tab by Juan Karlos Labajo (Ver. 2)

Guitar tabs

Print

Tuning: Standard (E chord diagramEE A chord diagramAA D chord diagramDD G chord diagramGG B chord diagramBB E chord diagramEE)

Intro:
e|--------0---------------------------0------------------------------0-------------------------|
B|-10/12----------12---------10-------------10----------8--------------------------------------|
G|---------------------------------------------------------------------------------------------|
D|-10/12--12------------10------------------------9--------------------------------------------|
A|---------------------------------------------------------------------------------------------|
E|-0-----------------------------0---------------------------0---------------------------------|

e|------------------0------------------------------0-------------------------|
B|-8-------7-------------7/10---------10/12------------12--------10----------|
G|---------------------------------------------------------------------------|
D|-----7------------------------------10/12-----------------10---------------|
A|---------------------------------------------------------------------------|
E|------------0-----------------0-------------0------------------------------|

e|-----0--------------------0------------------------0-----------------------|
B|---------10--------8------------8--------7------------------7--------------|
G|--------------9------------------------------------------------------------|
D|------------------------------------7--------------------------------------|
A|---------------------------------------------------------------------------|
E|-0--------------------0----------------------0-----------------------------|

e|----------------------------5-----------------------5----------------------|
B|--------------7---------------------7--------------------------------------|
G|------------------5----------------------5---------------------------------|
D|---------7-------------------------------------7---------------7-----------|
A|-7--6-----------------6---------6------------------------6-----------------|
E|---------------------------------------------------------------------------|

e|--------------5-------------------------------------------3--0--------0----| (Paki Strum)
B|-7------------------------------------------------------3-------3-----3----|
G|------5-----------------------------------0---------------------------0----|
D|--------------------------------------4------------4------------------4----|
A|----------6------------------0--2--3----------------------------------3----|
E|---------------------------------------------------------------------------|

Chords for Verse1&2: Timingan nalang
     Cmaj7 chord diagramCmaj7Cmaj7     D7 chord diagramD7D7    Dsus4 chord diagramDsus4Dsus4    G chord diagramGG    G7 chord diagramG7G7
e|----3------5------5-------3----3-------------------------------------------|
B|----5------7------8-------4----4-------------------------------------------|
G|----4------5------5-------5----3-------------------------------------------|
D|----5------7------7-------5----5-------------------------------------------|
A|----3------5------5-------3----3-------------------------------------------|
E|---------------------------------------------------------------------------|

Chords for Solo
     Cmaj7 chord diagramCmaj7Cmaj7     D7 chord diagramD7D7    Dsus4 chord diagramDsus4Dsus4    G chord diagramGG    D chord diagramDD/F# chord diagramF#F#    Em chord diagramEmEm   Dsus2 chord diagramDsus2Dsus2   Bm chord diagramBmBm  Balik Cmaj7 chord diagramCmaj7Cmaj7 magtatapos sa G7 chord diagramG7G7
e|----3------5------5-------3--------------------------2---------------------|
B|----5------7------8-------4------3------------3------3---------------------|
G|----4------5------5-------5-----2-------------2------4---------------------|
D|----5------7------7-------5------------2-------------4---------------------|
A|----3------5------5-------3------------2------x------2---------------------|
E|--------------------------------T-------------x----------------------------|

e|-------7/6-----5-----------------------------------------------------------|
B|---------------x-----------------------------------------------------------|
G|-5/7-----6-----5----3/4------------------------12----12-------14bf--14b----|
D|----------------------------12--13--12/11/12------12-------12--------------|
A|---------------------------------------------------------------------------|
E|---------------------------------------------------------------------------|

e|---------------------------------------------------------------------------|
B|--------------------------15--13--12--------------13-------12-13-12--------|
G|-14--14--16--14/13/14------------------14--14bf--------14-------------12\--|
D|---------------------------------------------------------------------------|
A|---------------------------------------------------------------------------|
E|---------------------------------------------------------------------------|

e|-------------------------------15----17--17bf-17b(hold)--17bf(bend pa)-----|
B|------------------15-----17------------------------------------------------|
G|-------12--14/16------16-----16---16---------------------------------------|
D|-7/12----------------------------------------------------------------------|
A|---------------------------------------------------------------------------|
E|---------------------------------------------------------------------------|

e|-17\---12-----14--15-------------------------------------------------------|
B|--------------------------12-------12------13----15------------------------|
G|-------------------------------------------------------12------------------|
D|-------------------------------------------------------------0-------------|
A|-----------------------------------------------------------------14---15---|
E|---------------------------------------------------------------------------|

e|--------------------------------------------------12-15------15---17bf-----|
B|--------------------------------------------15----------13-----------------|
G|-12-----------12-----14bf-(14)--12------16---------------------------------|
D|---------------------------------------------------------------------------|
A|-----14--15----------------------------------------------------------------|
E|---------------------------------------------------------------------------|

Other versions of Buwan

BuwanChords
Buwan acousticChords
BuwanTabs
Buwan acousticTabs