Log in

One click and you are in

Login with Facebook Login with Google

Why sign up and log in

Guitar Tabs Explorer
Vance Joy guitar tabs for Riptide

Guitar tabs

Tuning: Standard

Chords: Am, G, C, A chord diagramC majorC

Strumming Pattern: Down Down Up, Up Down Up

Finger Style:
e|----------------------0----5----3----1-----0-------------------------------|
B|-------0----1----3------------------------------------------0----1----3----|
G|--2----------------------------------------------------2-------------------|
D|---------------------------------------------------------------------------|
A|---------------------------------------------------------------------------|
E|---------------------------------------------------------------------------|

e|0----5----3----1----0---------0---------0----3---------0----0----0---------|
B|-------------------------3---------3----------------------------------3----|
G|---------------------------------------------------------------------------|
D|---------------------------------------------------------------------------|
A|---------------------------------------------------------------------------|
E|---------------------------------------------------------------------------|

e|0---------0-------0---------0---------0---------0--------------------------|
B|-----3-----------------3---------3---------3---------3----1----------------|
G|---------------------------------------------------------------------------|
D|---------------------------------------------------------------------------|
A|---------------------------------------------------------------------------|
E|---------------------------------------------------------------------------|



(will finish soon)
************************************

| /   slide up
| \   slide down
| h   hammer-on
| p   pull-off
| ~   vibrato
| +   harmonic
| x   Mute note
| b   Bend
| pb  Pre-bend
| br  Bend release
| pbr Pre-bend release
| brb Bend release bend

Other versions of Riptide

RiptideChords
Riptide (Ver. 2)Chords
Riptide (Ver. 3)Chords
Riptide acousticChords
Riptide introChords
Riptide solo ukuleleChords
Riptide ukuleleChords
Riptide ukulele (Ver. 2)Chords
Riptide1Chords

↓ Add and view comments below ↓

What do you think about this song and these tabs?

Add your comments, questions, rant or a thumbs up below.

Almost there ...

Sign in to get your own page with links to favourite songs and more. You are just one click away...

Login with Facebook Login with Google