Guitar Tabs Explorer
Vance Joy guitar tabs for Lay it on me

Lay It On Me tab


Be the first to rate


Ingo66Author: Ingo66

Jamplay guitar lessons

Lay It On Me tab by Vance Joy

"Lay It on Me" is a single Australian singer/song-writer Vance Joy released in July 2017. An accompanying music video was released at the same time.

Guitar tabs with lyrics

Print
Chords:

  Em chord diagramEmEm            Bm chord diagramBmBm#5          G chord diagramGG             C chord diagramCC             D chord diagramDD/F# chord diagramF#F#          C chord diagramCC/G chord diagramGG           D chord diagramDD/A chord diagramAA
  6 5 4 3 2 1   6 5 4 3 2 1   6 5 4 3 2 1   6 5 4 3 2 1   6 5 4 3 2 1   6 5 4 3 2 1   6 5 4 3 2 1
  -----------   -----------   -----------   -----------   -----------   -----------   -----------
  | | | | | |   | | | | | |   | | | | | |   | | | | 1 |   | | | | | |   | | | | 1 |   | | | | | |
  | 1 2 | | |   | 1 | | | |   | | | | | |   | | 2 | | |   1 | | 2 | |   | | 2 | | |   | | | | | |
3 | | | | | |   | | | | 3 |   2 | | | | 3   | 3 | | | |   | | | | 3 |   3 4 | | | |   | | | | 1 | 3
  | | | | | |   | | | | | |   | | | | | |   | | | | | |   | | | | | |   | | | | | |   | | 2 | | |
5 | | | | | |   | | | | | |   | | | | | |   | | | | | |   | | | | | |   | | | | | |   3 4 | | | | 5


Verse and Pre-Chorus Plucking Pattern:

   Em chord diagramEmEm       Bm chord diagramBmBm#5 G chord diagramGG                              C chord diagramCC         Bm chord diagramBmBm#5  D chord diagramDD/F# chord diagramF#F#
D|-------0--------------------------------|  D|----------------------------------------|
A|-------0---3---0---------0--------------|  A|---------1---3---3-------3--------------|
F| chord diagramF|F|--0--------0---0---0--2----2-0----------|  F| chord diagramF|F|----0----0---0---2------2-----2---2-----|
C| chord diagramC|C|----------------------------------------|  C| chord diagramC|C|----------------------------------------|
G|----------------------------------------|  G|--3---3------2--------------------------|
D|-0--0------0---3-3---3------------------|  D|-----------------2-----2--------2-------|

Chorus Plucking Pattern:

    Em chord diagramEmEm           C chord diagramCC/G chord diagramGG         D chord diagramDD/A chord diagramAA
D|------------------------------------------------------|
A|------0-----------1------------3----3------3----------|
F| chord diagramF|F|---0-----0-0---0-----0-0----0--0--0-0---0--0--0-0-----|
C| chord diagramC|C|------------------------------------------------------|
G|------------------------------------------------------|
D|--0-0---0-0---3-3---3-3----5-5---5-5---5-5---5-5------|

Chorus Stumming Pattern: (D chord diagramDD = Down) (U = Up)
Em chord diagramEmEm    Bm chord diagramBmBm#5 G chord diagramGG
D chord diagramDD  Du u    u UDu UDu

C chord diagramCC     Bm chord diagramBmBm#5 G chord diagramGG
D chord diagramDD  Du u    u  UDu UDu



Verse 1:

   Em chord diagramEmEm       Bm chord diagramBmBm#5 G chord diagramGG
         I'm So Gone
D|-------0----------------------------------|
A|-------0---3---0---------0----------------|
F| chord diagramF|F|--0--------0---0---0--2----2-0------------|
C| chord diagramC|C|------------------------------------------|
G|------------------------------------------|
D|-0--0------0---3-3---3--------------------|

   C chord diagramCC            Bm chord diagramBmBm#5  D chord diagramDD/F# chord diagramF#F#
   Anyone Could See that I'm wasted
D|------------------------------------------|
A|---------1---3---3-------3----------------|
F| chord diagramF|F|----0----0---0---2------2-----2---2-------|
C| chord diagramC|C|------------------------------------------|
G|--0---0------2----------------------------|
D|-----------------2-----2--------2---------|
   Em chord diagramEmEm       Bm chord diagramBmBm#5 G chord diagramGG
         You Cut Through
D|-------0----------------------------------|
A|-------0---3---0---------0----------------|
F| chord diagramF|F|--0--------0---0---0--2----2-0------------|
C| chord diagramC|C|------------------------------------------|
G|------------------------------------------|
D|-0--0------0---3-3---3--------------------|

   C chord diagramCC          Bm chord diagramBmBm#5  D chord diagramDD/F# chord diagramF#F#
And I just wanna know what's in your head
D|------------------------------------------|
A|---------1---3---3-------3----------------|
F| chord diagramF|F|----0----0---0---2------2-----2---2-------|
C| chord diagramC|C|------------------------------------------|
G|--0---0------2----------------------------|
D|-----------------2-----2--------2---------|


Pre-Chorus:

   Em chord diagramEmEm       Bm chord diagramBmBm#5 G chord diagramGG
         Write it on a piece of paper honey
D|-------0----------------------------------|
A|-------0---3---0---------0----------------|
F| chord diagramF|F|--0--------0---0---0--2----2-0------------|
C| chord diagramC|C|------------------------------------------|
G|------------------------------------------|
D|-0--0------0---3-3---3--------------------|


   C chord diagramCC          Bm chord diagramBmBm#5  D chord diagramDD/F# chord diagramF#F#

D|------------------------------------------|
A|---------1---3---3-------3----------------|
F| chord diagramF|F|----0----0---0---2------2-----2---2-------|
C| chord diagramC|C|------------------------------------------|
G|--0---0------2----------------------------|
D|-----------------2-----2--------2---------|

   Em chord diagramEmEm       Bm chord diagramBmBm#5 G chord diagramGG
         Put it in my coat before I go
D|-------0----------------------------------|
A|-------0---3---0---------0----------------|
F| chord diagramF|F|--0--------0---0---0--2----2-0------------|
C| chord diagramC|C|------------------------------------------|
G|------------------------------------------|
D|-0--0------0---3-3---3--------------------|

   C chord diagramCC          Bm chord diagramBmBm#5  D chord diagramDD/F# chord diagramF#F#

D|------------------------------------------|
A|---------1---3---3-------3----------------|
F| chord diagramF|F|----0----0---0---2------2-----2---2-------|
C| chord diagramC|C|------------------------------------------|
G|--0---0------2----------------------------|
D|-----------------2-----2--------2---------|

   Em chord diagramEmEm       Bm chord diagramBmBm#5 G chord diagramGG
         Hidden in a place you'll know I'll find it
D|-------0----------------------------------|
A|-------0---3---0---------0----------------|
F| chord diagramF|F|--0--------0---0---0--2----2-0------------|
C| chord diagramC|C|------------------------------------------|
G|------------------------------------------|
D|-0--0------0---3-3---3--------------------|

   C chord diagramCC          Bm chord diagramBmBm#5  D chord diagramDD/F# chord diagramF#F#

D|------------------------------------------|
A|---------1---3---3-------3----------------|
F| chord diagramF|F|----0----0---0---2------2-----2---2-------|
C| chord diagramC|C|------------------------------------------|
G|--0---0------2----------------------------|
D|-----------------2-----2--------2---------|

   Em chord diagramEmEm       Bm chord diagramBmBm#5 G chord diagramGG
         Later when I'm sitting all alone
D|-------0----------------------------------|
A|-------0---3---0---------0----------------|
F| chord diagramF|F|--0--------0---0---0--2----2-0------------|
C| chord diagramC|C|------------------------------------------|
G|------------------------------------------|
D|-0--0------0---3-3---3--------------------|

   C chord diagramCC          Bm chord diagramBmBm#5  D chord diagramDD/F# chord diagramF#F#

D|------------------------------------------|
A|---------1---3---3-------3----------------|
F| chord diagramF|F|----0----0---0---2------2-----2---2-------|
C| chord diagramC|C|------------------------------------------|
G|--0---0------2----------------------------|
D|-----------------2-----2--------2---------|

Chorus:
   Em chord diagramEmEm           C chord diagramCC/G chord diagramGG         D chord diagramDD/A chord diagramAA
    Let         Me          In           Everything starts with your
D|------------------------------------------------------|
A|------0-----------1------------3----3------3----------|
F| chord diagramF|F|---0-----0-0---0-----0-0----0--0--0-0---0--0--0-0-----|
C| chord diagramC|C|------------------------------------------------------|
G|------------------------------------------------------|
D|--0-0---0-0---3-3---3-3----5-5---5-5---5-5---5-5------|

   Em chord diagramEmEm           C chord diagramCC/G chord diagramGG         D chord diagramDD/A chord diagramAA
    Skin        So          New          Your Love's always finding me
D|------------------------------------------------------|
A|------0-----------1------------3----3------3----------|
F| chord diagramF|F|---0-----0-0---0-----0-0----0--0--0-0---0--0--0-0-----|
C| chord diagramC|C|------------------------------------------------------|
G|------------------------------------------------------|
D|--0-0---0-0---3-3---3-3----5-5---5-5---5-5---5-5------|

   Em chord diagramEmEm           C chord diagramCC/G chord diagramGG         D chord diagramDD/A chord diagramAA
    Out               Who am I Kidding?  If all my defenses come
D|------------------------------------------------------|
A|------0-----------1------------3----3------3----------|
F| chord diagramF|F|---0-----0-0---0-----0-0----0--0--0-0---0--0--0-0-----|
C| chord diagramC|C|------------------------------------------------------|
G|------------------------------------------------------|
D|--0-0---0-0---3-3---3-3----5-5---5-5---5-5---5-5------|

   Em chord diagramEmEm           C chord diagramCC/G chord diagramGG         D chord diagramDD/A chord diagramAA                                     Em chord diagramEmEm   Bm chord diagramBmBm#5   G chord diagramGG
    Down                Oh   Baby        Will you lay it all on me now  Go Into Strumming Chorus:
D|------------------------------------------------------|
A|------0-----------1------------3----3------3----------|
F| chord diagramF|F|---0-----0-0---0-----0-0----0--0--0-0---0--0--0-0-----|
C| chord diagramC|C|------------------------------------------------------|
G|------------------------------------------------------|
D|--0-0---0-0---3-3---3-3----5-5---5-5---5-5---5-5------|


                  C chord diagramCC    Bm chord diagramBmBm#5    D chord diagramDD/F# chord diagramF#F#
Lay it all on me now
                  Em chord diagramEmEm   Bm chord diagramBmBm#5   G chord diagramGG
Lay it all on me now
                  C chord diagramCC    Bm chord diagramBmBm#5    D chord diagramDD/F# chord diagramF#F#
Lay it all on me now


Verse 2: Verse and Pre-Chorus Plucking Pattern:

Em chord diagramEmEm     Bm chord diagramBmBm#5  G chord diagramGG
  Snow comes down
C chord diagramCC            Bm chord diagramBmBm#5 D chord diagramDD/F# chord diagramF#F#
Everything is new and different
Em chord diagramEmEm  Bm chord diagramBmBm#5  G chord diagramGG
  I found you
C chord diagramCC               Bm chord diagramBmBm#5  D chord diagramDD/F# chord diagramF#F#
Hidden in plain sight, why'd I take so long?


Pre-Chorus:
Em chord diagramEmEm         Bm chord diagramBmBm#5 G chord diagramGG                   C chord diagramCC   Bm chord diagramBmBm#5  D chord diagramDD/F# chord diagramF#F#
  Write it on a piece of paper, honey
Em chord diagramEmEm       Bm chord diagramBmBm#5  G chord diagramGG              C chord diagramCC   Bm chord diagramBmBm#5  D chord diagramDD/F# chord diagramF#F#
  Put it in my coat before I go

Chorus: Chorus Plucking Pattern:
Em chord diagramEmEm C chord diagramCC/G chord diagramGG D chord diagramDD/A chord diagramAA
Let me in
                            Em chord diagramEmEm C chord diagramCC/G chord diagramGG D chord diagramDD/A chord diagramAA
Everything starts at your skin, so new
                              Em chord diagramEmEm C chord diagramCC/G chord diagramGG
Your love's always finding me ou-out
         D chord diagramDD/A chord diagramAA
Who am I kidding?
                         Em chord diagramEmEm  C chord diagramCC/G chord diagramGG  D chord diagramDD/A chord diagramAA
If all my defences come down,  ah baby, baby
Chorus Strmming Pattern:
                           Em chord diagramEmEm   Bm chord diagramBmBm#5   G chord diagramGG
Will you lay it all on me now?
                  C chord diagramCC    Bm chord diagramBmBm#5   D chord diagramDD/F# chord diagramF#F#
Lay it all on me now
                  Em chord diagramEmEm   Bm chord diagramBmBm#5   G chord diagramGG
Lay it all on me now
                  C chord diagramCC    Bm chord diagramBmBm#5   D chord diagramDD/F# chord diagramF#F#
Lay it all on me now              Lay it all on me

Em chord diagramEmEm Bm chord diagramBmBm#5 G chord diagramGG   |   C chord diagramCC Bm chord diagramBmBm#5 D chord diagramDD/F# chord diagramF#F#
Ooh ooh ooh
Em chord diagramEmEm Bm chord diagramBmBm#5 G chord diagramGG   |   C chord diagramCC Bm chord diagramBmBm#5
Ooh ooh ooh Mmm Mmm



Chorus:                     Single Strum:
D chord diagramDD/F# chord diagramF#F#                          Em chord diagramEmEm C chord diagramCC/G chord diagramGG
Your love's always finding me ou-out
           D chord diagramDD/A chord diagramAA
Who am I kidding?
                         Em chord diagramEmEm  C chord diagramCC/G chord diagramGG  D chord diagramDD/A chord diagramAA
If all my defences come down, oh baby, baby
Chorus Strumming:
                           Em chord diagramEmEm   Bm chord diagramBmBm#5   G chord diagramGG
Will you lay it all on me now?
                  C chord diagramCC    Bm chord diagramBmBm#5    D chord diagramDD
Lay it all on me now
                  Em chord diagramEmEm   Bm chord diagramBmBm#5   G chord diagramGG
Lay it all on me now
                  C chord diagramCC    Bm chord diagramBmBm#5    D chord diagramDD
Lay it all on me now

Other versions of Lay It On Me

- Lay It on MeChords
- Lay It on Me (Ver. 2)Chords

Comment this song and these guitar tabs

Do you have corrections, comments on the guitar tabs, thoughts about the song or a message to the author? Write them below.