Search tabs and chords

Search for song, artist or band

Log in

One click and you are in

Login with Facebook Login with Google

Why sign up and log in

Guitar Tabs Explorer
Vance Joy guitar tabs for Alone with me acoustic

Guitar tabs with lyrics

Tuning: Standard (E chord diagramEE A chord diagramAA D chord diagramDD G chord diagramGG B chord diagramBB E chord diagramEE)

Difficulty: Intermediate

Intro:

e|-----0--------0--------------0--------0--------------0--------0-----------------------------------|
B|--------0--------0-----0--------0--------0-----0--------0--------0-----0--------------------------|
G|--------------------------------------------------------------------------------------------------|
D|--------------------------------------------------------------------------------------------------|
A|--6--------6--------6-----7--------7--------7-----4--------4--------4-----4-----------------------|
E|--------------------------------------------------------------------------------------------------|
Verse 1:
             I saw  you smile,       I knew you had spirit
e|-----0--------0--------------0--------0--------------0--------0--------------0--------0-----------|
B|--------0--------0-----0--------0--------0-----0--------0--------0-----0--------0--------0-----0--|
G|--------------------------------------------------------------------------------------------------|
D|--------------------------------------------------------------------------------------------------|
A|--6--------6--------6-----7--------7--------7-----4--------4--------4-----4--------4--------4-----|
E|--------------------------------------------------------------------------------------------------|

            Oh won't you let         your colors    ruuu -- uuuu -- uuuu -- uuun         Isn't it odd
e|-----0--------0--------------0--------0--------------0--------0--------------0--------0-----------|
B|--------0--------0-----0--------0--------0-----0--------0--------0-----0--------0--------0-----0--|
G|--------------------------------------------------------------------------------------------------|
D|--------------------------------------------------------------------------------------------------|
A|--6--------6--------6-----7--------7--------7-----4--------4--------4-----4--------4--------4-----|
E|--------------------------------------------------------------------------------------------------|

       The way we try,  to tell ourselves we've got limits
e|-----0--------0--------------0--------0--------------0--------0--------------0--------0-----------|
B|--------0--------0-----0--------0--------0-----0--------0--------0-----0--------0--------0-----0--|
G|--------------------------------------------------------------------------------------------------|
D|--------------------------------------------------------------------------------------------------|
A|--6--------6--------6-----7--------7--------7-----4--------4--------4-----4--------4--------4-----|
E|--------------------------------------------------------------------------------------------------|

             You're beautiful,   but you just don't see it sometimes,          and I    don't know
e|-----0--------0--------------0--------0--------------0--------0--------------0--------0-----------|
B|--------0--------0-----0--------0--------0-----0--------0--------0-----0--------0--------0-----0--|
G|--------------------------------------------------------------------------------------------------|
D|--------------------------------------------------------------------------------------------------|
A|--6--------6--------6-----7--------7--------7-----4--------4--------4-----4--------4--------4-----|
E|--------------------------------------------------------------------------------------------------|


Pre-Chorus:

    why,         Ooooohhhh      you're the shape of my   days
e|-----5--------5--------------5--------5-----------0-----0--------|
B|--------5--------5-----5--------5--------5-----5--0-----0--------|
G|-----------------------------------------------------------------|
D|-----------------------------------------------------------------|
A|--0--------0--------0-----0--------0--------0--------------------|
E|--------------------------------------------------2-----5--------|

    Oooooo  -------   O-Oh                you're my ho - ly place. And I know
e|-----5--------5--------------5--------5-----------0-----0--0-----|
B|--------5--------5-----5--------5--------5-----5--0-----0--0-----|
G|-----------------------------------------------------------------|
D|-----------------------------------------------------------------|
A|--0--------0--------0-----0--------0--------0--------------------|
E|--------------------------------------------------2-----5--5-----|


Chorus:

    Everything's good, everything's just as it should be, when you're alone with me
e|-----0--------0--------------0--------0--------------4--------2--------------0--------0-----------|
B|--------5--------5-----5--------5--------5-----5--------4--------4-----4--------4--------4-----4--|
G|--------------------------------------------------------------------------------------------------|
D|--------------------------------------------------------------------------------------------------|
A|--4--------4--------4-----------------------------0--------0--------0-----2--------2--------2-----|
E|--------------------------5--------5--------5-----------------------------------------------------|

    Everything's good, everything's just as it should be, when we're alone.              When I
e|-----0--------0--------------0--------0--------------4--------2--------------0--------0-----------|
B|--------5--------5-----5--------5--------5-----5--------4--------4-----4--------4--------4-----4--|
G|--------------------------------------------------------------------------------------------------|
D|--------------------------------------------------------------------------------------------------|
A|--4--------4--------4-----------------------------0--------0--------0-----2--------2--------2-----|
E|--------------------------5--------5--------5-----------------------------------------------------|

    fall,       I'm      fine,          all I        wan  ---  ted was  your time
e|-----0--------0--------------0--------0--------------4--------2--------------0--------0-----------|
B|--------5--------5-----5--------5--------5-----5--------4--------4-----4--------4--------4-----4--|
G|--------------------------------------------------------------------------------------------------|
D|--------------------------------------------------------------------------------------------------|
A|--4--------4--------4-----------------------------0--------0--------0-----2--------2--------2-----|
E|--------------------------5--------5--------5-----------------------------------------------------|

    Everything's good, everything's just as it should be, when you're alone,         alone with me
e|-----0--------0--------------0--------0--------------4--------2--------------0--------0-----------|
B|--------5--------5-----5--------5--------5-----5--------4--------4-----4--------4--------4-----4--|
G|--------------------------------------------------------------------------------------------------|
D|--------------------------------------------------------------------------------------------------|
A|--4--------4--------4-----------------------------0--------0--------0-----2--------2--------2-----|
E|--------------------------5--------5--------5-----------------------------------------------------|


Verse 2:

e|-----0--------0--------------0--------0--------------0--------0-----------------------------------|
B|--------0--------0-----0--------0--------0-----0--------0--------0-----0--------------------------|
G|--------------------------------------------------------------------------------------------------|
D|--------------------------------------------------------------------------------------------------|
A|--6--------6--------6-----7--------7--------7-----4--------4--------4-----4-----------------------|
E|--------------------------------------------------------------------------------------------------|


    I'll sit right here, til you start talking
e|-----0--------0--------------0--------0--------------0--------0--------------0--------0-----------|
B|--------0--------0-----0--------0--------0-----0--------0--------0-----0--------0--------0-----0--|
G|--------------------------------------------------------------------------------------------------|
D|--------------------------------------------------------------------------------------------------|
A|--6--------6--------6-----7--------7--------7-----4--------4--------4-----4--------4--------4-----|
E|--------------------------------------------------------------------------------------------------|

             I'll wait it out,       til you come rooo -- oooo -- oooo -- uund       It pays to look up
e|-----0--------0--------------0--------0--------------0--------0--------------0--------0-----------|
B|--------0--------0-----0--------0--------0-----0--------0--------0-----0--------0--------0-----0--|
G|--------------------------------------------------------------------------------------------------|
D|--------------------------------------------------------------------------------------------------|
A|--6--------6--------6-----7--------7--------7-----4--------4--------4-----4--------4--------4-----|
E|--------------------------------------------------------------------------------------------------|

           In the big city, everything moves    so  fast                             It pays to look up
e|-----0--------0--------------0--------0--------------0--------0--------------0--------0-----------|
B|--------0--------0-----0--------0--------0-----0--------0--------0-----0--------0--------0-----0--|
G|--------------------------------------------------------------------------------------------------|
D|--------------------------------------------------------------------------------------------------|
A|--6--------6--------6-----7--------7--------7-----4--------4--------4-----4--------4--------4-----|
E|--------------------------------------------------------------------------------------------------|

         'Cause you dont know what you might see-eee                           When you look a-
e|-----0--------0--------------0--------0--------------0--------0--------------0--------0-----------|
B|--------0--------0-----0--------0--------0-----0--------0--------0-----0--------0--------0-----0--|
G|--------------------------------------------------------------------------------------------------|
D|--------------------------------------------------------------------------------------------------|
A|--6--------6--------6-----7--------7--------7-----4--------4--------4-----4--------4--------4-----|
E|--------------------------------------------------------------------------------------------------|


Pre-Chorus:

    round,       Ooooohhhh      you're the shape of my   days
e|-----5--------5--------------5--------5-----------0-----0--------|
B|--------5--------5-----5--------5--------5-----5--0-----0--------|
G|-----------------------------------------------------------------|
D|-----------------------------------------------------------------|
A|--0--------0--------0-----0--------0--------0--------------------|
E|--------------------------------------------------2-----5--------|

    Oooooo     -      O-Oh               you're my  ho - ly place. And I know
e|-----5--------5--------------5--------5-----------0-----0--0-----|
B|--------5--------5-----5--------5--------5-----5--0-----0--0-----|
G|-----------------------------------------------------------------|
D|-----------------------------------------------------------------|
A|--0--------0--------0-----0--------0--------0--------------------|
E|--------------------------------------------------2-----5--5-----|


Chorus 2:

   Everything's good, everything's just as it should be, when you're alone with me
e|-----0--------0--------------0--------0--------------4--------2--------------0--------0-----------|
B|--------5--------5-----5--------5--------5-----5--------4--------4-----4--------4--------4-----4--|
G|--------------------------------------------------------------------------------------------------|
D|--------------------------------------------------------------------------------------------------|
A|--4--------4--------4-----------------------------0--------0--------0-----2--------2--------2-----|
E|--------------------------5--------5--------5-----------------------------------------------------|

    Everything's good, everything's just as it should be, when we're alone.             Here I am
e|-----0--------0--------------0--------0--------------4--------2--------------0--------0-----------|
B|--------5--------5-----5--------5--------5-----5--------4--------4-----4--------4--------4-----4--|
G|--------------------------------------------------------------------------------------------------|
D|--------------------------------------------------------------------------------------------------|
A|--4--------4--------4-----------------------------0--------0--------0-----2--------2--------2-----|
E|--------------------------5--------5--------5-----------------------------------------------------|


Bridge:

                            Saying things   to you                        I never      thought that I
e|-----0--------0--------------0--------0-----------------0--------0-----------4--------2-----------|
B|--------4--------4-----4--------5--------5-----5-----5--------5--------5--------5--------4-----4--|
G|--------------------------------------------------------------------------------------------------|
D|--------------------------------------------------------------------------------------------------|
A|--2--------2--------2-----4--------4--------4-----------------------------0--------0--------0-----|
E|-------------------------------------------------5--------5--------5------------------------------|

                          Would say outside my head                         Ohhhh   and here we are
e|-----0--------0--------------0--------0-----------------0--------0-----------4--------2-----------|
B|--------4--------4-----4--------5--------5-----5-----5--------5--------5--------5--------4-----4--|
G|--------------------------------------------------------------------------------------------------|
D|--------------------------------------------------------------------------------------------------|
A|--2--------2--------2-----4--------4--------4-----------------------------0--------0--------0-----|
E|-------------------------------------------------5--------5--------5------------------------------|

                          I'm doing things with you                          I never thought we'd do
e|-----0--------0--------------0--------0-----------------0--------0-----------4--------2-----------|
B|--------4--------4-----4--------5--------5-----5-----5--------5--------5--------5--------4-----4--|
G|--------------------------------------------------------------------------------------------------|
D|--------------------------------------------------------------------------------------------------|
A|--2--------2--------2-----4--------4--------4-----------------------------0--------0--------0-----|
E|-------------------------------------------------5--------5--------5------------------------------|

                          I'm see-ing   in-to   you
e|-----0--------0--------------0--------0-----------------0--------0-----------5--------5-----------|
B|--------4--------4-----4--------5--------5-----5-----5--------5--------5--------5--------5-----5--|
G|--------------------------------------------------------------------------------------------------|
D|--------------------------------------------------------------------------------------------------|
A|--2--------2--------2-----4--------4--------4-----------------------------0--------0--------0-----|
E|-------------------------------------------------5--------5--------5------------------------------|


Pre-Chorus:

     Oooooo  -  ohhhhhhhhh      you're the shape of all   my days
e|-----5--------5--------------5--------5-----------0-----0--0-----|
B|--------5--------5-----5--------5--------5-----5--0-----0--0-----|
G|-----------------------------------------------------------------|
D|-----------------------------------------------------------------|
A|--0--------0--------0-----0--------0--------0--------------------|
E|--------------------------------------------------2-----5--5-----|

    Oooooo     -      O-Oh               you're my  ho - ly place. And I know
e|-----5--------5--------------5--------5-----------0-----0--0-----|
B|--------5--------5-----5--------5--------5-----5--0-----0--0-----|
G|-----------------------------------------------------------------|
D|-----------------------------------------------------------------|
A|--0--------0--------0-----0--------0--------0--------------------|
E|--------------------------------------------------2-----5--5-----|


Lead-in:

e|-----0-----------------------0-----------------------4--------4-----2--------0--------0-----------|
B|--------5-----5-----------------5-----5-----------------4-----------------------4--------4-----4--|
G|--------------------------------------------------------------------------------------------------| x2
D|--------------------------------------------------------------------------------------------------|
A|--4--------4--------------------------------------0--------0--------------2--------2--------2-----|
E|--------------------------5--------5--------------------------------------------------------------|


Chorus:

 Everything's good, everything's just as it should be, when you're alone with me
e|-----0--------0--------------0--------0--------------4--------2--------------0--------0-----------|
B|--------5--------5-----5--------5--------5-----5--------4--------4-----4--------4--------4-----4--|
G|--------------------------------------------------------------------------------------------------|
D|--------------------------------------------------------------------------------------------------|
A|--4--------4--------4-----------------------------0--------0--------0-----2--------2--------2-----|
E|--------------------------5--------5--------5-----------------------------------------------------|

    Everything's good, everything's just as it should be, when we're alone.              When I
e|-----0--------0--------------0--------0--------------4--------2--------------0--------0-----------|
B|--------5--------5-----5--------5--------5-----5--------4--------4-----4--------4--------4-----4--|
G|--------------------------------------------------------------------------------------------------|
D|--------------------------------------------------------------------------------------------------|
A|--4--------4--------4-----------------------------0--------0--------0-----2--------2--------2-----|
E|--------------------------5--------5--------5-----------------------------------------------------|

    fall,       I'm      fine,          all I        wan  ---  ted was  your time
e|-----0--------0--------------0--------0--------------4--------2--------------0--------0-----------|
B|--------5--------5-----5--------5--------5-----5--------4--------4-----4--------4--------4-----4--|
G|--------------------------------------------------------------------------------------------------|
D|--------------------------------------------------------------------------------------------------|
A|--4--------4--------4-----------------------------0--------0--------0-----2--------2--------2-----|
E|--------------------------5--------5--------5-----------------------------------------------------|

    Everything's good, everything's just as it should be, when you're alone,         alone with me
e|-----0--------0--------------0--------0--------------4--------2--------------0--------0-----------|
B|--------5--------5-----5--------5--------5-----5--------4--------4-----4--------4--------4-----4--|
G|--------------------------------------------------------------------------------------------------|
D|--------------------------------------------------------------------------------------------------|
A|--4--------4--------4-----------------------------0--------0--------0-----2--------2--------2-----|
E|--------------------------5--------5--------5-----------------------------------------------------|

                                  You're alone with meeee, babe                   You're alone with me
e|-----0--------0--------------0--------0--------------4--------2--------------0--------0-----------|
B|--------5--------5-----5--------5--------5-----5--------4--------4-----4--------4--------4-----4--|
G|--------------------------------------------------------------------------------------------------|
D|--------------------------------------------------------------------------------------------------| x4
A|--4--------4--------4-----------------------------0--------0--------0-----2--------2--------2-----|
E|--------------------------5--------5--------5-----------------------------------------------------|


Outro:

e|-----0--------0--------------0--------0--------------0--------0-----------------------------------|
B|--------0--------0-----0--------0--------0-----0--------0--------0-----0--------------------------|
G|--------------------------------------------------------------------------------------------------|
D|--------------------------------------------------------------------------------------------------|
A|--6--------6--------6-----7--------7--------7-----4--------4--------4-----4-----------------------|
E|--------------------------------------------------------------------------------------------------|

Other versions of Alone With Me Acoustic

Alone with meChords
Alone with me - introTabs

Almost there ...

Sign in to get your own page with links to favourite songs and more. You are just one click away...

Login with Facebook Login with Google