Log in

One click and you are in

Login with Facebook Login with Google

Why sign up and log in

Guitar Tabs Explorer
The Joy Formidable guitar tabs for Radio of lips

Intro

e|---------------------|--------------------------|
B|---------7-7--10-10--|-7-7--10-10---------------|
G|-7--9-9--------------|-------------9-9--7-7-----|
D|---------------------|--------------------------|
A|---------------------|--------------------------|
E|---------------------|--------------------------|

e|---------------------|-------------7-7--10--10--|
B|---------7-7--10-10--|-7-7--10-10---------------|
G|-7--9-9--------------|--------------------------|
D|---------------------|--------------------------|
A|---------------------|--------------------------|
E|---------------------|--------------------------|

e|---------------------|--------------------------|
B|---------7-7--10-10--|-7-7--10-10---------------|
G|-7--9-9--------------|-------------9-9--7-7-----|
D|---------------------|--------------------------|
A|---------------------|--------------------------|
E|---------------------|--------------------------|

e|---------------------|-------------7-7--10--10--|
B|---------7-7--10-10--|-7-7--10-10---------------|
G|-7--9-9--------------|--------------------------|
D|---------------------|--------------------------|
A|---------------------|--------------------------|
E|---------------------|--------------------------|

Other versions of Radio Of Lips

Radio of lipsChords

Almost there ...

Sign in to get your own page with links to favourite songs and more. You are just one click away...

Login with Facebook Login with Google