Log in

One click and you are in

Login with Facebook Login with Google

Why sign up and log in

Guitar Tabs Explorer
Joy Division bass tabs for Wilderness

Bass tabs with lyrics

"Wilderness" by Joy Division (from the album "Unknown Pleasures"


transcribed by Gilles Vela

Any comments, corrections or suggestions
Please email me at gvelay@club-internet.f

Notation
	w : whol
	h : half     \ : slide dow
	q : quarter    / : slide u
	e : 8th      h : hammer o

Riff
=====
   q  q  q  e e
G-||-------------------|
D-||-------------------|
A-||-5-/-13-\--3---3-3-|
E-||-------------------|


Riff I

   e e e e e e e
G-||-----------------|
D-||-----------------|
A-||-5-5-1-1-3-3-3-3-|
E-||-----------------|


Riff II

   e e q  e e e
G-||-----------------|
D-||-----3-----------|
A-||-5-5-----5-5-3-1-|
E-||-----------------|

Riff I

   e e q  e e e
G-||-----------------|
D-||-----3-------5-3-|
A-||-5-5-----5-5-----|
E-||-----------------|





Intro : 	Riff I	(x2) then drums ente
		Riff II	(x4) then guitar enter
		Riff II	(x5

1st Verse :	Riff I	(x15

1st Break :	Riff I	(x4
		Riff II	(x5

2nd Verse :	Riff I	(x15

2nd Break :	Riff I	(x4
		Riff III	(x8
		Riff IV	(x2
		Riff III	(x2
		Riff IV	(x2
		Riff II	(x5

3rd Verse :	Riff I	(x15

End :	Riff I	(x4

Almost there ...

Sign in to get your own page with links to favourite songs and more. You are just one click away...

Login with Facebook Login with Google