Log in

One click and you are in

Login with Facebook Login with Google

Why sign up and log in

Guitar Tabs Explorer
Joy Division bass tabs for Isolation

Bass tabs

JOY DIVISION - Isolation
Tabbed by : Tom


Main Riff:
This starts at :03 after 2 measures of drums, and repeats throughout the verses and chorus.

G|-----------------------|--------------------|
D|-----------------------|--------------------|
A|-8/10-10-10-8/10-10-10-|-8/10-10-10---------|
E|-----------------------|------------8-8-8-8-|

G|-----------------------|------------------------|
D|-----------------------|------------10-10-10-10-|
A|-8/10-10-10-8/10-10-10-|-8/10-10-10-------------|
E|-----------------------|------------------------|
After the third verse ends, a couple variations of the main riff are played:

2:00 - This one is played twice
G|-----------------------|-----------------------|
D|-----------------------|------------8-10-12-10-|
A|-8/10-10-10-8/10-10-10-|-8/10-10-10------------|
E|-----------------------|-----------------------|

G|-----------------------|------------------------|
D|-----------------------|------------10-10-10-10-|
A|-8/10-10-10-8/10-10-10-|-8/10-10-10-------------|
E|-----------------------|------------------------|


2:13 - This is played once
G|-----------------------|--------------------|
D|-----------------------|--------------------|
A|-8/10-10-10-8/10-10-10-|-8/10-10-10---------|
E|-----------------------|------------8-8-8-8-|

G|-----------------------|--------------------|
D|-----------------------|--------------------|
A|-8/10-10-10-8/10-10-10-|-8/10-10-10---------|
E|-----------------------|------------8-8-8-8-|

2:19
G|-----------------------|--------------------|
D|-----------------------|--------------------|
A|-8/10-10-10-8/10-10-10-|-8/10-10-10---------|
E|-----------------------|------------8-8-8-8-|

G|-----------------------|---------------------|
D|-----------------------|---------------------|
A|-8/10-10-10-8/10-10-10-|-8/10-10-10----------|
E|-----------------------|------------6-8-10-8-|


2:25 - This is the last chorus
G|-----------------------|---------------------|
D|-----------------------|---------------------|
A|-8/10-10-10/8-10-10-10-|-8/10-10-10----------|
E|-----------------------|------------6-8-10-8-|

G|-----------------------|---------------------|
D|-----------------------|---------------------|
A|-8/10-10-10/8-10-10-10-|-8/10-10-10----------|
E|-----------------------|------------6-8-10-8-|


G|-----------------------|-----------------------|
D|-----------------------|------------8-10-12-10-|
A|-8/10-10-10-8/10-10-10-|-8/10-10-10------------|
E|-----------------------|-----------------------|

G|-----------------------|--------------------|
D|-----------------------|--------------------|
A|-8/10-10-10-8/10-10-10-|-8/10-10-10---------|
E|-----------------------|------------8-8-8-8-|

G|-----------------------|
D|-----------------------|
A|-8/10-10-10-8/10-10-10-|
E|-----------------------|

Almost there ...

Sign in to get your own page with links to favourite songs and more. You are just one click away...

Login with Facebook Login with Google