Log in

One click and you are in

Login with Facebook Login with Google

Why sign up and log in

Guitar Tabs Explorer
Joy Division bass tabs for Cermony

Bass tabs with lyrics

-----------------------------------------------------------------------------
			  Joy Division - Ceremoney
-----------------------------------------------------------------------------

Tabbed By : Extra Blood
e-mail: Lenda@ofir.dk
Tuning: Standard

Listen to the song before playing, to get
the rythm. Have fun and please leave
behind a comment or a rating.

I would really appriciate it.

Pattern A


  q  e e q  e q   e e e e e e e q
G-|------17----17------17---|----17----17----17-------
D-|-15------15------15------|-15----15----15----0-----
A-|-------------------------|----------------------15-
E-|-------------------------|-------------------------

  e e q  e q  e e  e e e e e e e
G-|-17----17------17------17|----17----17----17-------|
D-|-------------------------|-------------------0-----|
A-|----15------15------15---|-15----15----15----------|
E-|-------------------------|-------------------------|

Pattern B


  q  e e q  e q   e e e e e e e  q
G-|-------------------------|-------------------------
D-|-------------------------|-------------------------
A-|------15----15------15---|----15----15----15-------
E-|-13------13------13------|-13----13----13----13/-8-

  e e q  e q  e e e  e e e e e  e
G-|-------------------------|-------------------------|
D-|-10---10-----10-----10---|-10---10---10------------|
A-|-------------------------|-------------------------|
E-|----8------8------8----8-|----8----8-----8\--------|

Pattern C

  q  e e e e e  e  e e e e e e e e
G-|-17---17----17----17-----|17----17----17----17-----
D-|-15------15----15-----15-|---15----15----15----15/-
A-|-------------------------|-------------------------
E-|-------------------------|-------------------------

  q  e e e e e  q  e e e e   e e e
G-|-12---12----12----12--12-|-----12----12-----12-----|
D-|-10------10----10-----10-|--10----10-----10----10\-|
A-|-------------------------|-------------------------|
E-|-------------------------|-------------------------|

Pattern C-2


  q  e e e e e  e e e e e e e e+++q
G-|------17----17----17-----|17----17----17-17-17--17-
D-|-15------15----15-----15-|---15----15--------------
A-|-------------------------|-------------------------
E-|-------------------------|-------------------------

  q  e e q  e  e++++e e e e e e e e
G-|------12----12-------12--|12----12----12----12-----|
D-|-10------10------10------|---10----10----10----0---|
A-|-------------------------|-------------------------|
E-|-------------------------|-------------------------|

Pattern D


  e e e e e e e e  e e e e e e e e
G-|-------------------------|-------------------------
D-|-15-15-15-15-15-15-15-15-|-15-15-15-15-15-14-15-17-
A-|-------------------------|-------------------------
E-|-------------------------|-------------------------

  e e e e e e e q  e e e e  e e e
G-|-------------------------|-------------------------
D-|----------------------14-|----14----14/-17-17-17---
A-|-15-15-15-15-15-15-15----|-15----15----------------
E-|-------------------------|-------------------------

  e e e e e e e e  e e e e e e e e
G-|-------------------------|-------------------------
D-|-15-15-15-15-15-15-15-15-|-15-15-15-15-15-14-15-15-
A-|-------------------------|-------------------------
E-|-------------------------|-------------------------

  e e e e e e e e  e e e e e e e e
G-|-------------------------|-------------------------|
D-|-------------------------|----------14-14----14-14-|
A-|-15-15-15-15-15-15-15-15-|-15-15-15-------15-------|
E-|-------------------------|-------------------------|

Pattern E


  e e e e e e e e  e e e e e e e e
G-|-------------------------|-------------------------
D-|-15-15-15-15-15-15-15-15-|-15-15-15-15-15-14-15-17-
A-|-------------------------|-------------------------
E-|-------------------------|-------------------------

  e e e e e e e q  e e e e  e e e
G-|-------------------------|-------------------------
D-|----------------------14-|----14----14/-17-17-17---
A-|-15-15-15-15-15-15-15----|-15----15----------------
E-|-------------------------|-------------------------

  e e e e e e e e  e e e e e e e e
G-|-------------------------|-------------------------
D-|-15-15-15-15-15-15-15-15-|-15-15-15-15-15-14-15-15-
A-|-------------------------|-------------------------
E-|-------------------------|-------------------------

  e e e e e e e e  e e e e e e e e
G-|-------------------------|-------------------------|
D-|-------------------------|-------------------14-14-|
A-|-15-15-15-15-15-15-15-15-|-15-15-15-15-15-15-------|
E-|-------------------------|-------------------------|

Pattern F


  e e e e e e e e  e e e e e e e e
G-|-------------------------|-------------------------
D-|-15-15-15-15-15-15-15-15-|-15-15-15-15-15-14-15-17-
A-|-------------------------|-------------------------
E-|-------------------------|-------------------------

  e e e e e e e q  e e e e  e e e
G-|-------------------------|-------------------------
D-|----------------------14-|----14----14/-17-17-17---
A-|-15-15-15-15-15-15-15----|-15----15----------------
E-|-------------------------|-------------------------

  e e e e e e e e  e e e e e e e e
G-|-------------------------|-------------------------
D-|-15-15-15-15-15-15-15-15-|-15-15-15-15-15-14-15-15-
A-|-------------------------|-------------------------
E-|-------------------------|-------------------------

  e e e e e e e e  e e e e e e e e
G-|-------------------------|-------------------------|
D-|----------------------14-|-14-14-14-14-14-14-14-14-|
A-|-15-15-15-15-15-15-15-15-|-15-15-15-15-15-15-15-15-|
E-|-------------------------|-------------------------|

Pattern G


  q  e e e e e  e  e e e e e e e e
G-|-17---17----17----17-----|17----17----17----17-----
D-|-15------15----15-----15-|---15----15----15----15/-
A-|-------------------------|-------------------------
E-|-------------------------|-------------------------

  q  e e e e e  q  e e e e   e e e
G-|-12---12----12----12--12-|-----12----12-----12-----
D-|-10------10----10-----10-|--10----10-----10----10\-
A-|-------------------------|-------------------------
E-|-------------------------|-------------------------

  q  e e e e e  e  e e e e e e e e
G-|-17---17----17----17-----|17----17----17----17-----
D-|-15------15----15-----15-|---15----15----15----15/-
A-|-------------------------|-------------------------
E-|-------------------------|-------------------------

  w
G-|-12----------------------|-------------------------|
D-|-10----------------------|-------------------------|
A-|-------------------------|-------------------------|
E-|-------------------------|-------------------------|


Intro :	    Pattern A  (x7)
        Pattern B  (x2)

1st Verse :	Pattern B  (x4)


Chorus :	Pattern C  (x5)
        Pattern C-2

2nd Verse :	Pattern B  (x4)


Chorus :	Pattern C  (x5)


Bridge :	Pattern D
        Pattern E
        Pattern D
        Pattern F


Outro :		Pattern C (x2)
        Pattern G

| w Whole
| h Half
| q Quarter
| e 8th
| / Slide Up
| \ Slide Down
| + Tied Note

Almost there ...

Sign in to get your own page with links to favourite songs and more. You are just one click away...

Login with Facebook Login with Google