Log in

One click and you are in

Login with Facebook Login with Google

Why sign up and log in

Guitar Tabs Explorer
Joy Division bass tabs for Autosuggestion

Bass tabs

Joy Division
Autosuggestion
Bassist: Peter Hook (Hooky)
album: substance

riff 1

|-----------------|
|-----------------|
|---2*------------|
|0-2--------------|


riff 2

|------------------|
|----2*------------|
|---2--------------|
|0-2---------------|


riff 3

|-----2222----------|
|----2--------------|
|---2---------------|
|0-2----------------|


riff 4

|---------2222-|
|-------2------|
|----22--------|
|0-22----------|

tabbed by mark


* (let ring)

listen to the song to get it perfect and find which riff goes where =)

Almost there ...

Sign in to get your own page with links to favourite songs and more. You are just one click away...

Login with Facebook Login with Google