Log in

One click and you are in

Login with Facebook Login with Google

Why sign up and log in

Guitar Tabs Explorer
Joy Division bass tabs for 24 hours

Bass tabs

"24 Hours" by Joy Division (from the album "Closer"


transcribed by Gilles Vela

Any comments, corrections or suggestions
Please email me at gvelay@club-internet.f

Notation
	w : whole     R : res
	h : half     \ : slide dow
	q : quarter    +++ : tied note
	e : 8th      h : hammer o
	s : 16th
Intr
====
  h       e  e  e  e
G-|-R--------------9---9---10--10--
D-|--------------------------------
A-|--------------------------------
E-|--------------------------------

  e  e+q+h +++++++++++++++++++++++ q+e     e  e  e  e  e
G-|-12-----------------------------|-------------------9---9---10--10-
D-|-----10-------------------------|--10-----------10-----------------
A-|--------------------------------|----------------------------------
E-|--------------------------------|----------------------------------

  e  e+q+h +++++++++++++++++++++++ q+e     e  e  e  e  e
G-|-12-----------------------------|-------------------9---9---10--10-
D-|-----10-------------------------|--10-----------10-----------------
A-|--------------------------------|----------------------------------
E-|--------------------------------|----------------------------------

   w +++++++++++++++++++++++++++++++ q+e     e  e  e  e  e [x2
G-||--------------------------------|-------------------9---9---10--10-|
D-||-12-----------------------------|--12-----------10-----------------|
A-||--------------------------------|----------------------------------|
E-||--------------------------------|----------------------------------|

   e  e+q+h +++++++++++++++++++++++ q+e     e  e  e  e  e [x2]
G-||-12-----------------------------|-------------------9---9---10--10-|
D-||-----10-------------------------|--10-----------10-----------------|
A-||--------------------------------|----------------------------------|
E-||--------------------------------|----------------------------------|

  q    q    q    e  e +++ e  e  q   e  e  e  e
G-|--------------------------------|-------------------9---9---10--10-
D-|-12------12------12------12--12-|--12---12---12--------------------
A-|--------------------------------|----------------------------------
E-|--------------------------------|----------------------------------

  q    e  e  e  e  e  e  q   s s e  e  e  e  e
G-|--------------------------------|/15----15-15-15-------------------
D-|-12------12--12--12--12--12--12-|-----------------15--15--14--14---
A-|--------------------------------|----------------------------------
E-|--------------------------------|----------------------------------

1st Vers

   e  e  e  e  e  e  e  e   e  e  e  e  e  e  e  e [xN]
G-||--------------------------------|----------------------------------|
D-||-12--12--12--0---12--12--0---12-|--12--12--12--12--15--15--14--14--|
A-||--------------------------------|----------------------------------|
E-||--------------------------------|----------------------------------|


2nd Vers


  w +++++++++++++++++++++++++++++++ h        e  e  e  e
G-|--------------------------------|-------------------9---9---10--10-
D-|-12-----------------------------|--12------------------------------
A-|--------------------------------|----------------------------------
E-|--------------------------------|----------------------------------

   e  e+q+h +++++++++++++++++++++++ q+e     e  e  e  e  e [x2]
G-||-12-----------------------------|-------------------9---9---10--10-|
D-||-----10-------------------------|--10-----------10-----------------|
A-||--------------------------------|----------------------------------|
E-||--------------------------------|----------------------------------|

   w +++++++++++++++++++++++++++++++ q+e     e  e  e  e  e [x2
G-||--------------------------------|-------------------9---9---10--10-|
D-||-12-----------------------------|--12-----------10-----------------|
A-||--------------------------------|----------------------------------|
E-||--------------------------------|----------------------------------|

   e  e+q+h +++++++++++++++++++++++ q+e     e  e  e  e  e [x2]
G-||-12-----------------------------|-------------------9---9---10--10-|
D-||-----10-------------------------|--10-----------10-----------------|
A-||--------------------------------|----------------------------------|
E-||--------------------------------|----------------------------------|

  q    q    q    e  e +++ e  e  q   e  e  e  e
G-|--------------------------------|-------------------9---9---10--10-
D-|-12------12------12------12--12-|--12---12---12--------------------
A-|--------------------------------|----------------------------------
E-|--------------------------------|----------------------------------

  q    e  e  e  e  e  e  q   s s e  e  e  e  e
G-|--------------------------------|/15----15-15-15-------------------
D-|-12------12--12--12--12--12--12-|-----------------15--15--14--14---
A-|--------------------------------|----------------------------------
E-|--------------------------------|----------------------------------


3rd Verse : same as 1st Vers


Brea
====

   w +++++++++++++++++++++++++++++++ h        e  e  e  e [x2
G-||--------------------------------|-------------------10--10--9---9--|
D-||-12-----------------------------|--12------------------------------|
A-||--------------------------------|----------------------------------|
E-||--------------------------------|----------------------------------|

  w +++++++++++++++++++++++++++++++ h        e  e  e  e
G-|--------------------------------|-------------------10--10--9---9--
D-|-10-----------------------------|--10------------------------------
A-|--------------------------------|----------------------------------
E-|--------------------------------|----------------------------------


  w +++++++++++++++++++++++++++++++ h        e  e  e  e
G-|--------------------------------|-------------------10--10--9---9--
D-|-12-----------------------------|--12------------------------------
A-|--------------------------------|----------------------------------
E-|--------------------------------|----------------------------------


4th Verse : same as 2nd Vers


5th Verse : same as 1st Vers


En
==
   w +++++++++++++++++++++++++++++++ h        e  e  e  e [x3
G-||--------------------------------|-------------------10--10--9---9--|
D-||-12-----------------------------|--12------------------------------|
A-||--------------------------------|----------------------------------|
E-||--------------------------------|----------------------------------|

  w +++++++++++++++++++++++++++++++ h        e  e  e  e
G-|--------------------------------|-------------------10--10--9---9--
D-|-10-----------------------------|--10------------------------------
A-|--------------------------------|----------------------------------
E-|--------------------------------|----------------------------------

   h        e  e  e  e   h        e  e  e  e [x2
G-||-----------------10--10--9---9--|-------------------10--10--9---9--|
D-||-12-----------------------------|--10------------------------------|
A-||--------------------------------|----------------------------------|
E-||--------------------------------|----------------------------------|


  h        e  e  e  e   h        e  e  e  e
G-|-----------------10--10--9---9--|-------------------9---9---10--10-
D-|-12-----------------------------|--12------------------------------
A-|--------------------------------|----------------------------------
E-|--------------------------------|----------------------------------

  e  e+q+h
G-|-12-----------------------------
D-|-----10-------------------------
A-|--------------------------------
E-|--------------------------------

Almost there ...

Sign in to get your own page with links to favourite songs and more. You are just one click away...

Login with Facebook Login with Google