GuitarTabsExplorer icon
GuitarTabsExplorer icon

Log in

Songbook

  • Log in to add and see bookmarks

Last visited songs

    No songs visited yet...

Feet Don't Fail Me Now by Joy Crookes

Feet Don't Fail Me Now bass tab by Joy Crookes

Bass tabs with lyrics

🎸 Intro:

G|------------------------6-------|------------------------6h8p6---|
D|8-----------8---6---6-------6---|8-----------8---6---6-----------|
A|--------------------------------|--------------------------------|
E|--------------------------------|--------------------------------|

G|------------------------6-------|----------------6---8---6-------|
D|8-----------8---6---6-------6---|8-----------8---------------6---|
A|--------------------------------|--------------------------------|
E|--------------------------------|--------------------------------|


🎸 Verse 1:

I've been posing with red skies

G|------------------------6-------|------------------------6h8p6---|
D|8-----------8---6---6-------6---|8-----------8---6---6-----------|
A|--------------------------------|--------------------------------|
E|--------------------------------|--------------------------------|

G|------------------------6-------|--------------------------------|
D|8-----------8---6---6-------6---|8---------------8-------8-------|
A|--------------------------------|------------8-------8-------8---|
E|--------------------------------|--------------------------------|

I'm keeping up appearances

G|--------------------------------|--------------------------------|
D|----------------------------11--|--------------------11----------|
A|9-----------9-------9-----------|9-----------9-----------9---8---|
E|--------------------------------|--------------------------------|

G|--------------------------------|--------------------------------|
D|--------------------------------|------------------------10--11--|
A|6-----------6-------6-----------|8-----------8-------8-----------|
E|------------------------6---9---|--------------------------------|

Damn, thank God I've got my vice

G|------------------------6-------|------------------------6h8p6---|
D|8-----------8---6---6-------6---|8-----------8---6---6-----------|
A|--------------------------------|--------------------------------|
E|--------------------------------|--------------------------------|

G|------------------------6-------|--------------------------------|
D|8-----------8---6---6-------6---|8---------------8-------8-------|
A|--------------------------------|------------8-------8-------8---|
E|--------------------------------|--------------------------------|

My better side

G|----------------------------11--|--------------------------------|
D|------------------------11------|--------------------11----------|
A|9-----------9-------9-----------|9-----------9-----------9---8---|
E|--------------------------------|--------------------------------|

G|--------------------------------|------------8-9-10--------------|
D|--------------------------------|----------------------10--------|
A|6-----------6-------6-----------|8-----------------------8-------|
E|------------------------6---9---|--------------------------------|

🎸 Chorus:

Feet, don't fail me now

G|--------------------------------|------------------------10------|
D|8-----------8-------8-----------|8-----------8-------8-------11--|
A|----------------------------8---|--------------------------------|
E|--------------------------------|--------------------------------|

G|--------------------------------|--------------------------------|
D|----------------------------11--|--------------------------------|
A|9-----------9-------9-----------|9-----------9-------9---8-------|
E|--------------------------------|--------------------------------|

G|--------------------------------|--------------------------------|
D|--------------------------------|--------------------------------|
A|6-----------6-------6-----------|6-----------6-------6---8---9---|
E|----------------------------6---|--------------------------------|

G|----------------------------10--|----------------10--------------|
D|------------------------10------|--------------------10------11--|
A|8-----------8-------8-----------|8-------8---------------8-------|
E|--------------------------------|--------------------------------|

Feet, don't fail me now

G|--------------------------------|--------------------------------|
D|8-----------8-------8----6------|----------------8-------8---6---|
A|----------------------------8---|------------8-------8-----------|
E|--------------------------------|6-------------------------------|

G|--------------------------------|--------------------------------|
D|----------------------------11--|--------------------8-----------|
A|9-----------9-------9-----------|9---------------9-------9---8---|
E|--------------------------------|------------9-------------------|

G|--------------------------------|--------------------------------|
D|--------------------------------|--------------------------------|
A|6-----------6-------6-------4---|6-----------6-------6---8---9---|
E|------------------------6-------|--------------------------------|

G|----------------------------10--|--------------------------------|
D|------------------------10------|--------------------------------|
A|8-----------8-------8-----------|8-------8-------8---------------|
E|--------------------------------|--------------------9---8-------|
🎸 Verse 2:

I, I cry like crocodile

G|------------------------6-------|------------------------6h8p6---|
D|8-----------8---6---6-------6---|8-----------8---6---6-----------|
A|--------------------------------|--------------------------------|
E|--------------------------------|--------------------------------|

G|------------------------6-------|--------------------------------|
D|8-----------8---6---6-------6---|8---------------8---7---6---5---|
A|--------------------------------|--------8-----8-----------------|
E|--------------------------------|--------------------------------|

There ain't a rulе

G|----------------------------10--|--------------------------------|
D|4-----------------------11------|------------------------11------|
A|------------9-------9-----------|9-----------9-------9-----------|
E|--------------------------------|----------------------------9---|

G|--------------------------------|--------------------8---10------|
D|--------------------------------|--------7---8-9-10--------------|
A|------------6-------6-----------|8---------------------------8---|
E|11----------------------6---9---|--------------------------------|


🎸 Chorus:

Feet, don't fail me now

G|--------------------------------|--------------------------------|
D|8-----------8-------8-------6---|8-----------8-------8---10--11--|
A|------------------------8-------|--------------------------------|
E|--------------------------------|--------------------------------|

G|----------------------------11--|--------------------------------|
D|------------------------11------|--------------------------------|
A|9-----------9-------9-----------|9-----------9-------9---8-------|
E|--------------------------------|--------------------------------|

G|--------------------------------|--------------------------------|
D|--------------------------------|--------------------------------|
A|6-----------6-------6-------6---|6-----------6-------6-----------|
E|------------------------6-------|------------------------6---9---|

G|----------------------------10--|----------------------------10--|
D|------------------------10------|--------------------7---8-------|
A|8-----------8-------8-----------|8-------8-------8---------------|
E|--------------------------------|--------------------------------|

Feet, don't fail me now

G|--------------------------------|--------------------------------|
D|8-----------8-------8-------6---|8-------6-----------------------|
A|------------------------8-------|----------------8-------6-------|
E|--------------------------------|--------------------------------|

G|----------------------------11--|--------------------------------|
D|------------------------11------|--------------------------------|
A|9-----------9-------9-----------|9-----------9-------9---8-------|
E|--------------------------------|--------------------------------|

G|--------------------------------|--------------------------------|
D|--------------------------------|--------------------------------|
A|6-----------6-------6-------4---|6-----------6-------6-----------|
E|------------------------6-------|------------------------6---9---|

G|----------------------------10--|--------------------------------|
D|------------------------10------|--------------------------------|
A|8-----------8-------8-----------|8-------8-----8-8---8---6-------|
E|--------------------------------|--------------------------------|

🎸 Bridge:

I was scared

G|--------------------------------|--------------------------------|
D|--------------------------------|--------------------------------|
A|4-------------------------------|4---------------8---6---4---3---|
E|--------------------------------|--------------------------------|

G|--------------------------------|--------------------------------|
D|--------------------------------|----------------6-------4-------|
A|--------------------------------|--------------------------------|
E|1-----------1---1-----------1---|1-----------1-------------------|

Why? Oh

G|--------------------------------|--------------------------------|
D|--------------------------------|--------------------------------|
A|6-----------6---6-----------4---|6-----------6---6---------------|
E|------------------------6-------|------------------------6-------|

G|--------------------------------|--------------------------------|
D|--------------------------------|--------------------------------|
A|8-----------8---8---------------|8-----------8---8---------------|
E|--------------------------------|--------------------------------|


🎸 Chorus:

Feet don't fail me now

G|------------------------6-------|------------------------6-------|
D|8-----------8---6---6-------6---|8-----------8---6---6-------6---|
A|--------------------------------|--------------------------------|
E|--------------------------------|--------------------------------|

G|------------------------6-------|----------------8h108-------8---| Hammer on and pull off 8 10 8
D|8-----------8---6---6-------6---|8-----------8-----------11------|
A|--------------------------------|--------------------------------|
E|--------------------------------|--------------------------------|

G|--------------------------------|--------------------------------|
D|--------------------------------|--------------------------------|
A|9-----------9-------9-----------|9---------------9-------9---8---|
E|----------------------------9---|------------9-------9-----------|

G|--------------------------------|--------------------------------|
D|--------------------------------|--------------------------------|
A|6-----------6---------------6---|8-----------8---8---6---4-------|
E|----------------6---6---9-------|--------------------------------|

Feet, don't fail me now

G|--------------------------------|--------------------------------|
D|--------------------------------|--------------------------------|
A|1-----------1-------1-----------|1-----------1---1---------------|
E|------------------------1---4---|------------------------4-------|

G|--------------------------------|--------------------------------|
D|--------------------------------|--------------------------------|
A|--------------------------------|------------------------4---5---|
E|2-----------2-------2-------2---|2-----------2-------6-----------|

G|--------------------------------|--------------------------------|
D|--------------------------------|--------------------------------|
A|6-----------6-------6-------4---|6-----------6-------6-----------|
E|------------------------6-------|------------------------6---9---|

G|----------------------------10--|--------------------------------|
D|------------------------10------|--------------------8---10------|
A|8-----------8-------8-----------|8-------8-----8-8---------------|
E|--------------------------------|--------------------------------|


🎸 Outro:

G|------------------------6-------|------------------------6-------|
D|8-----------8---6---6-------6---|8-----------8---6---6-------6---|
A|--------------------------------|--------------------------------|
E|--------------------------------|--------------------------------|

G|------------------------6-------|--------------------------------|
D|8-----------8---6---6-------6---|8---------------8---7---6---5---|
A|--------------------------------|------------8-------------------|
E|--------------------------------|--------------------------------|

G|----------------6---6-----------|----------------5---6---5-------|
D|4-----------4---------------6---|4-----------4---------------6---|
A|-----------------------4--------|--------------------------------|
E|--------------------------------|--------------------------------|

G|--------------------------------|------------101110--------------| Hammer on and pull off 10 11 10
D|--------------------------------|--------------------13--11--10--|
A|6-----------6---------------9---|8-------------------------------|
E|----------------6---6---9-------|--------------------------------|


☠☠☠☠☠☠☠☠☠☠☠☠☠☠☠☠☠☠☠☠☠☠☠☠☠☠☠☠☠☠☠☠☠☠☠☠

| h Hammer-on
| p Pull-off

☠☠☠☠☠☠☠☠☠☠☠☠☠☠☠☠☠☠☠☠☠☠☠☠☠☠☠☠☠☠☠☠☠☠☠☠

[ Privacy | About us ]

Welcome to the guitar community

Why join and log in?
- Get songbook with favourite songs
- Get custom made front page
- Submit chords and tabs
- Submit guitar-cover videos
- Get a lot of thumbs up for your work

Songbook

Last visited songs

Site
Home
Search
Community
Submit chords
Submit video

Video

No video for this page. Check out how you can submit guitar-cover videos here

Search tabs and chords

Browse by artist

A B C D E F G H I J K L M N O P Q R S T U V W X Y Z #


Menu

Search

Video

Bookmark

Login