Log in

One click and you are in

Login with Facebook Login with Google

Why sign up and log in

Guitar Tabs Explorer
Journey bass tabs for Whos cryin now

Bass tabs

-------------------------------------------------------------------------------
			   whos cryin now-journey
-------------------------------------------------------------------------------

Tabbed By : theblckravn01
e-mail: classified
Tuning:standard

   intro
G|--------------------------------------------------------------------------------------|
D|-----------------------------------------------------2-----0--------------------------|
A|--------------------3------------------------3----------------------------------------|
E|-5----------------------3----1-------------------------------------------0---------5--|

   A
G|--------------------------------------------------------------------------|
D|------------------------------------------------------2----0--------------|
A|------------------------3---------------------3---------------------------|
E|--1---3---5--------------3----1--------------------------------0-------5--|

G|----------------------------------------------------------------------------|
D|-------------------------------------------------------2----0---------------|
A|--------------------------3---------------------3---------------------------|
E|--1---3-------5------------3----1--------------------------------0-------5--|


   B
G|-------------------------------------------------------------------------------------------------|
D|-------------------------------------------------------------------------------------------2--0--|
A|----------------3---2---------------------------------------3-------------------------3----------|
E|--1---3---5--------------5-----5-5------5-5-----5-5-------3---1-----1-1---1-1---1-1--------------|


G|-------------------------------------------------------------------------------------------------|
D|-0-0---------------------------------------------------------------------------------------------|
A|----------------------------------------------------3---2-------------------------------------3--|
E|----------3----3-3------5---5-5---5----1---3---5--------5-----5-5------5-5-----5-5-------3-------|

G|----------------------------------------------------------------------------------------|
D|---------------------------------------0---0-0------------------------------------------|
A|-------------------------------3---4----------------------------------------------------|
E|---1-----1-1---1-1---1-1-----------------------3----3-3------5-----5-5-----5-5-----5-5--|

   play A
   play B
G|----------------------------------------------------------------------------------------------|
D|--------------0-----------------------------------------0-------------------------------------|
A|---------------------------------------------------------------------3------------------------|
E|---5---------------------5------------3-1------------------------------------3-------------6--|

   play intro

G|-----------------------------2-----0-----------------------------------------|
D|-----------------------3----------------------------2----0-------------------|
A|-----------------------------------------------3-----------------------------|
E|--1---3---5-------------------------------------------------------0-------5--|

   play B at least 5x till end


| / slide up
| \ slide down
| h hammer-on
| p pull-off
| ~ vibrato
| + harmonic
| x Mute note

Almost there ...

Sign in to get your own page with links to favourite songs and more. You are just one click away...

Login with Facebook Login with Google