Log in

One click and you are in

Login with Facebook Login with Google

Why sign up and log in

Guitar Tabs Explorer
Journey tabs for Wheel in the sky

Guitar tabs

Journey
	Wheel in the Sky
	Greatest Hits


The intro is a simple chorded harmony played on a acoustic or electric
with some chorus.


e---1------3---5----3--1--|--0------0--1-0---------0---|
b--------3----------------|------2---------1----3-----1|
g------2----------5-------|----0-----------------------|
d---0------2---3----------|----------------------------|
a-------------------------|--3------------------------3|
e-------------------------|----------------------------|


e---1------3---5----3--1--|--8-----10--8--------------0|
b--------3----------------|------8--------8----8--10---|
g------2----------5-------|--5------------------------0|
d---0------2---3----------|----------------------------|
a-------------------------|----------------------------|
e-------------------------|----------------------------|

			Distorted Electric plays---->    A chord diagramC5C5

e---1------3---5----3--1--|--0------0--1-0---------0---|
b--------3----------------|------2---------1----3-----1|
g------2----------5-------|----0-----------------------|
d---0------2---3----------|----------------------------|
a-------------------------|--3------------------------3|
e-------------------------|----------------------------|

   Bb5---Another acoustic comes in and strums
				   A chord diagramDmDm        A chord diagramC majorC   A chord diagramDmDm

e---x---------------------|----------------------------|
b---3---------------------|----------------------------|
g---3---------------------|----------------------------|
d---3-----------------3---|--0---------------------3---|
a---1---------0--h3-------|----------------0---h3------|
e---x---------------------|----------------------------|


    Keep playing that riff for the verse (minus the A chord diagramBb majorBb chord.)


		A chord diagramDmDm                A chord diagramC majorC  A chord diagramDmDm
		Winter is here...

		A chord diagramDmDm			A chord diagramC majorC  A chord diagramDmDm
		Happening how, many...

		A chord diagramC majorC			A chord diagramBb majorBb
		I hope she...

		A chord diagramDmDm                A chord diagramC majorC  A chord diagramDmDm

			Repeat 1x


		Chorus...

Elec. Distorted w/ Acoustic strumming

    A chord diagramDmDm        A chord diagramC/EC/E  A chord diagramFF           A chord diagramC majorC

e---1-----1----3---5---3--1-|--0---------|
b---------------------------|------------|
g---------------------------|------------|
d-----0---0----2---3---2--0-|------------|
a---------------------------|--3---------|
e---------------------------|------------|

   Wheel in the sky, keeps on...

		On the 3rd time...


    A chord diagramDmDm        A chord diagramC/EC/E  A chord diagramFF           A chord diagramC majorC      A chord diagramBb majorBb

e---1-----1----3---5---3--1-|--0------x---------------|
b---------------------------|---------3---------------| into verse
g---------------------------|---------3---------------|
d-----0---0----2---3---2--0-|---------3------------3p-|-0
a---------------------------|--3------1-----0--h3-----|
e---------------------------|-------------------------|


repeat verse...

chorus...

solo to verse...
etc. etc.

Other versions of Wheel In The Sky

Wheel in The SkyChords
Wheel in The Sky (Ver. 2)Chords
Wheel in The Sky (Ver. 2)Tabs

Almost there ...

Sign in to get your own page with links to favourite songs and more. You are just one click away...

Login with Facebook Login with Google