Log in

One click and you are in

Login with Facebook Login with Google

Why sign up and log in

Guitar Tabs Explorer
Journey tabs for Stone in love

Guitar tabs

this is a sweet song


intro:

--5--7--4--4----------------
--5--9--7--5----------------
--6--9--7--6----------------
--7--9--7--6----------------
--7--7--5--4----------------
--5--x--x--x----------------

--5--7--4--4----------------
--5--9--7--5----------------
--6--9--7--6----------------
--7--9--7--6----------------
--7--7--5--4----------------
--5--x--x--x----------------


chorus:

--7--5--5--0-------------------
--9--7--5--0-------------------
--9--7--6--1-------------------
--9--7--7--2-------------------
--7--5--7--2-------------------
--x--x--5--0-------------------

--7--5--5--0-------------------
--9--7--5--0-------------------
--9--7--6--1-------------------
--9--7--7--2-------------------
--7--5--7--2-------------------

ⓘ Guitar tab for 'Stone In Love' by Journey, a hard rock band formed in 1973 from San Francisco, USA. Journey is known for their rousing rock/pop music.

Other versions of Stone In Love

Stone in LoveChords

Almost there ...

Sign in to get your own page with links to favourite songs and more. You are just one click away...

Login with Facebook Login with Google