Log in

One click and you are in

Login with Facebook Login with Google

Why sign up and log in

Guitar Tabs Explorer
Journey tabs for Separate ways

Guitar tabs

Performed By : Journey
Tabbed By: thegritts


ok well...during a lot of the chords there is a lot of palm
muting which i wont tab but if u listen it is very easy to
pick up how to strum the song.

Intro

this part is played from  0:00 to 0:14

Guitar 1
|-12---------14---------15-----------------------|
|---12-12-12---12-12-12---12-12-12-12-12-12------|
|------------------------------------------------|  x4
|------------------------------------------------|
|------------------------------------------------|
|------------------------------------------------|


VERSE

0:07

Guitar 2
|-----------------|
|-----------------|
|-9-9-9-9-9-9-9---|   this is played throughtout the
|-9-9-9-9-9-9-9---|   verse repeatedly
|-7-7-7-7-7-7-7---|
|-----------------|

0:14   ths part is repeated throughout the VERSE

Guitar 1
|---------------------------------------------------|
|---------------------------------------------------|
|-12-12-12-12--11-11-11-11--9-9-9-9-9-9-9-9---------|
|-12-12-12-12--11-11-11-11--9-9-9-9-9-9-9-9---------|
|-10-10-10-10--9--9--9--9---7-7-7-7-7-7-7-7---------|
|---------------------------------------------------|


PRE CHORUS

0:57

Guitar 1
feeling/that it's/ gooonnnnnnnnnnnnnnnnnnnnnnnnne....
|---------------------------------------------------|
|---------------------------------------------------|
|-12----14----------16--16--16--16--14--14--14--14--|
|-10----12----------14--14--14--14--12--12--12--12--|
|-10----12----------14--14--14--14--12--12--12--12--|
|---------------------------------------------------|

change/  your  mind         end it with on second time
-------------------------|--------------------------|
-------------------------|--------------------------|
-14-----12-----12--------|--14--16------------------|
-12-----10-----10--------|--12--14------------------|
-12-----10-----10---x2---|--12--14------------------|
-------------------------|--------------------------|

Guitar 2 does same pattern as Guitar 1 but with these
chords

|-------------------------------------------------|
|-------------------------------------------------|
|-9---7---5---------------------------------------|
|-9---7---5---------------------------------------|
|-7---5---3---------------------------------------|
|-------------------------------------------------|


CHORUS
1:15

Guitar 1
|--------------------------------------------------|
|--------------------------------------------------|
|-16----------14---------12-----------12---14--16--|
|-14-8-times--12-8-times-10-8-times---10---12--14--|
|-14----------12---------10-----------10---12--14--|
|--------------------------------------------------|

Guitar 2
|--------------------------------------------------|
|--------------------------------------------------|
|-9----------7---------5------------5--7--9--------|
|-7-8-times--5-8-times-3-8-times----3--5--7--------|
|-7----------5---------3------------3--5--7--------|
|--------------------------------------------------|

Guitar 3 DOES ALL FILLS DURING THE SONG

FILL 1 0:42    FILL 2  1:51 and 1:58
|-------------|-----19-------------------------------|
|-8-7---------|---17---------------------------------|
|-----7-9-----|-16-----------------------------------|
|-------------|--------------------------------------|
|-------------|--------------------------------------|
|-------------|--------------------------------------|


SOLO at 3:14

|----12-14-15---12-14-15--15b17--12-14-15--17h19p17-15-17--|
|-12---------12--------------------------------------------|
|----------------------------------------------------------|
|----------------------------------------------------------|
|----------------------------------------------------------|
|----------------------------------------------------------|


|--15-14-15-12------|
|-------------12-10-|
|-------------------|
|-------------------|
|-------------------|
|-------------------|

3:29                                 extremely fast here
|----12-14-15---12-14-15--15b17--12----------------------|
|-12---------12------------------------------------------|
|------------------------------------11h12h14--11h12h14--|
|--------------------------------------------------------|
|--------------------------------------------------------|
|--------------------------------------------------------|


|---------------------------------------------------|
|---------------------------------------------------|
|-15/16-16-16--14p13p11--14p13p11-------------------|
|---------------------------------14-12-12----------|
|---------------------------------------------------|
|---------------------------------------------------|

|--------------------------------------------------------|
|--------------------------------------------------------|
|--14p12p11----------------------------------------------|
|----------12-14/15/17-17--------------------------------|
|--------------------------------------------------------|
|--------------------------------------------------------|

that should be enough information for the whole song

Other versions of Separate Ways

Separate waysChords
Separate ways acousticChords
Separate ways worlds apartChords

Almost there ...

Sign in to get your own page with links to favourite songs and more. You are just one click away...

Login with Facebook Login with Google