Log in

One click and you are in

Login with Facebook Login with Google

Why sign up and log in

Guitar Tabs Explorer
Journey bass tabs for Separate ways

Bass tabs

Tabbed by Gilly Gilfoyle, Hartlepool, UK. I've tabbed this in D instead of E, easier on
vocal pipes! Piece of cake, weally weally easy.

SEPARATE WAYS (WORLDS APART) -JOURNEY BASS TAB (IN ‘D’)
INTRO 	‘D’ TO DRUM BEAT

VERSE 1 	‘D’ TO DRUM BEAT


BRIDGE 1
(…Feelin’ that it’s gone-.)
G|------------------------------|-------------|-----------------|
D|------------------------------|-------------|-----------------|
A|---------0--------1--1--1-1-1-|-3--3--3-3-3-|-3---------------|
E|-3----------------------------|-------------|---3-3--33333333-|

(…If we can’t go on…) 			(…to survive…)(…love divides…)
G|------------------------------|-------------|--------|--------|
D|------------------------------|-------------|--------|--------|
A|------0-----------1--1--1-1-1-|-3--3--3-3-3-|-3------|-0--1-1-|
E|-3----------------------------|-------------|---3-3--|--------|


Chorus
G|----------------------|--------------------|------------------|----------|
D|----------------------|--------------------|------------------|----------|
A|-5-5--5-5-5-5-5-5-5-5-|-3-3--3-3-3-3-3-3-3-|-1-1--1-1-1-1-1-1-|----3---4-|} x2
E|----------------------|---------------------------------------|-3--------|


INTRO 	‘D’ TO DRUM BEAT

VERSE 2 	‘D’ TO DRUM BEAT

BRIDGE	SAME

CHORUS	SAME

SOLO	SAME AS CHORUS TAB

Keyboard bit & Stabs
G|------------------------|-----------------|--------------------|
D|------------------------|-----------------|--------------------|
A|--5------------1--------|--5-----3-----1--|--0000000000000000--|
E|--------1------------3--|-----------------|--------------------|


Chorus tab, then:

Triple Stabs	  Chorus Tab	    Triple Stabs
G|---------------|			|---------------|
D|---------------|			|---------------|
A|--3-3-3-4-4-4--|			|--3-3-3-4-4-4--|
E|---------------|			|---------------|

 (…No!)			(…No!)
G|------------------|------------------|
D|------------------|------------------|
A|--5----------5-5--|--5----------5-5--|

Almost there ...

Sign in to get your own page with links to favourite songs and more. You are just one click away...

Login with Facebook Login with Google