Log in

One click and you are in

Login with Facebook Login with Google

Why sign up and log in

Guitar Tabs Explorer
Journey tabs for Remember me

Guitar tabs

Journey

Remember Me

Transcribed by Brian S.

This is a great song with great guitar licks.
Intro :
guitar 1 : (12 String Acoustic)
e--3---6--6vv----6--6--5vv------------------------------------|
b--4---6--6vv----6--6--6vv------------------------------------|
g--3---7--7vv--x-7--7--5vv------------------------------------|
d--------------x----------------------------------------------|
a--------------x----------------------------------------------|
e-------------------------------------------------------------|

guitar 2 : w/ delay
			                 	       echo
e--------------------------------------------------------------|
b-----------------------------------10--11vvv--13bvvv-(13bvv)--|
g--------------------------------12----------------------------|
d-----------------------------12-------------------------------|
a--------------------------------------------------------------|
e--------------------------------------------------------------|
       Tap
e----------------------------------------------|
b-13bvv14-p13bvvr13vvv---11bvvr11p10-----------|
g------------------------------------12vvvvv---|
d----------------------------------------------|
a----------------------------------------------|
e----------------------------------------------|


Solo :
e---------------------------------------------------------------------------|
b---------------------------------------------------------------------------|
g---------------------------------------------------------------------------|
d--x\---------------------13vvv--13br--12vvv--/12--10-----------------------|
a---x\--10vvv--10--12-/13------------------------------13-12vvv-10h12p10----|
e------------------------------------------------------------------------13-|

e--------------------------------------------------------------------|
b-----------------------------------11-13br-11h13p11-13b-11h13p11----|
g---------------------10vvvvv---/12-------------------------------12-|
d--------------------------------------------------------------------|
a--10vvv--10--12-/13-------------------------------------------------|
e--------------------------------------------------------------------|

e-------------------------------------------------------------------|
b--11---------------------------------------------------------------|
g-----12-10h12p10----10--------------------------------12b15vvvr----|
d-----------------12----10h12p10-10----------12---------------------|
a-----------------------------------13p12p10----12p10---------------|
e-------------------------------------------------------------------|

e----------------------------------------------------------------------|
b------------------------------------------------------11----------11--|
g--------12----------12----------12----------12--10h12----10-10h12-----|
d--10h12----10h12-12----10-10h12----10-10h12---------------------------|
a----------------------------------------------------------------------|
e----------------------------------------------------------------------|

e---------------------------------------------------------------------------|
b--------11-------11---------13-------13----------13--13b--13bvvvv----------|
g--10h12----10h12------12h14----12h14----12-12h14-----------(guitar 2-------|
d------------------------------------------------------------comes in below)|
a---------------------------------------------------------------------------|
e---------------------------------------------------------------------------|

guitar 2 : (repeated...)
e-------10-13p10-----10-13p10------10-13p10-----|
b--13bv----------13bv---------13bv--------------|
g-----------------------------------------------|
d-----------------------------------------------|
a-----------------------------------------------|
e-----------------------------------------------|

guitar 1 :
e-17--17--17b18--17br17-15--------------------------------------------|
b--------------------------18-18bvv-----------------------------------|
g-----------------------------------17-17p15-----------17-------17----|
d--------------------------------------------17-17p15-----15h17----15-|
a---------------------------------------------------------------------|
e---------------------------------------------------------------------|
guitar 2 :
e---------------------------------------------------------------------|
b-18--18--18b20--18br18-16----------18-18p16-----------18-------18----|
g--------------------------17-17bvv----------17-17p15-----15h17----17-|
d---------------------------------------------------------------------|
a---------------------------------------------------------------------|
e---------------------------------------------------------------------|

guitar 1 :
e-------------------|
b-------------------|
g-------------------|
d--15h17--17vvv-----|
a-------------------|
e-------------------|
guitar 2 :
e-------------------|
b-------------------|
g--15h17------------|
d-------------------|
a-------------------|

ⓘ Guitar tab for 'Remember Me' by Journey, a hard rock band formed in 1973 from San Francisco, USA. Journey is known for their rousing rock/pop music.

Other versions of Remember Me

Remember meChords

Almost there ...

Sign in to get your own page with links to favourite songs and more. You are just one click away...

Login with Facebook Login with Google