Log in

One click and you are in

Login with Facebook Login with Google

Why sign up and log in

Guitar Tabs Explorer
Journey tabs for Patiently

Guitar tabs with lyrics

Man, there isnt enough journey tab out there...people need to get a good
dose of journey and
witness the awesome guitar skills of that which is Neal Schon...a totally
INCREDIBLE guitar player.

anyway...this is a very beautiful and enlightening acoustic piece.  Excellent
finger-picking practice for the beginner.  Schon uses changing chromatic
patterns over stagnant chords which is almost like a classical style.  The
only tricky part of this piece is figuring out the fingering which i partially
wrote down and the timing...but if you know the song pretty well, you'll get
the idea.  The transcription may not be perfect...i just wanted true fans to
get the idea. I'll try to post more journey stuff if i'm not too lazy or if
there is demand
email - tabenlightened@yahoo.com


Journey

Patiently- from the album INFINITY


 4/4

           8x          4x
|---3------||---3------||---3------||------|
|-----0---o||-----0---o||-----0---o||------|
|-------0--||-------0--||-------0--||------|
|-1--------||-2--------||-3--------||-3----|
|---------o||---------o||---------o||------|
|----------||----------||----------||------|

||-----------0---------------------------------------0------------0-1--|
||o------------1-----------3------------3--------------2--------3------|
||--------0------0-------0---0--------0---0--------2-----2----2--------|
||------2----------2---0-------0----0-------0----2----------0----------|
||o-2-3--------------2------------1------------0-----------------------|
||---------------------------------------------------------------------|


      4 2 3 1      3 2 4 1 (fingering)
|-----------1------------1------------3------||-------------------------|
|-3-------3---3--------3---3--------3---3---o||---------1-------------3-|
|---2---2-------2----2-------2----2-------2--||-------0---0---------0---|
|--------------------------------------------||-----2-------2-----0-----|
|-----4------------3------------2-----------o||-2-3-----------3-2-------|
|--------------------------------------------||-------------------------|


|-------------------------------||----------------||-------0-------|---*|
|-----------0-1-----------1-----||-------3-------o||---------3----o|---*|
|-0-------2-----2-------2---2---||-----2---2------||-----2-----2---|---*|
|---0---2---------2---2-------2-||---0-------0----||---0-----------|---*|
|-----0-------------------------||---------------o||--------------o|---*|
|-------------------3-----------||-2--------------||-1-------------|---*|


repeat other parts as needed...continues with some of the same riffs with distortion yada yada...
ⓘ Guitar tab for 'Patiently' by Journey, a hard rock band formed in 1973 from San Francisco, USA. Journey is known for their rousing rock/pop music.

Other versions of Patiently

Patiently (Ver. 2)Tabs

Almost there ...

Sign in to get your own page with links to favourite songs and more. You are just one click away...

Login with Facebook Login with Google