Log in

One click and you are in

Login with Facebook Login with Google

Why sign up and log in

Guitar Tabs Explorer
Journey bass tabs for Lights

Bass tabs with lyrics

Band: Journey
Album: Infinity

Tuning: Standard
one let me start off by say this is not my tab a buddy sent it to me but its sounds good
tabs ez but ever thing you need to know it thair

   H*  H*  H*  H*  H*  H*  E E E Q*  Q* E E E
G: |----|----|----|----|----|----|-----------|-----------|
D:6|----|----|----|----|----|----|-----------|-----------|
A:8|----|----|----|----|----|----|-5-0-5=(5)===(5)-0-2-4-|
E: |----|----|----|----|----|----|-----------|-----------|
   Q* Q E  H*  Q* Q E  H*  Q* Q E  H*  Q* Q E  H*
G: |---------|----|---------|----|---------|----|---------|----|
D:6|---------|----|---------|----|---------|----|---------|----|
A:8|-5=(5)-4-|-2--|-3=(3)---|-3--|-5=(5)-4-|-2--|-3=(3)---|-3--|
E: |---------|----|-------3-|----|---------|----|-------3-|----|


   Q* Q E  H*  Q* Q E  Q* E E E  Q* E E E
G: |---------|----|---------|-----------|-----------|
D:6|---------|----|---------|-----------|-----------|
A:8|-5=(5)-4-|-2--|-3=(3)---|-3=(3)---3-|-2=(2)---2-|
E: |---------|----|-------3-|-------3---|-------2---|


   Q* E E E  E E E Q*  Q* E E E
G: |-----------|-----------|-----------|
D:6|-------0-2-|-----------|-----------|
A:8|-3=(3)-----|-5-0-5=(5)===(5)-0-2-4-|
E: |-----------|-----------|-----------|


   Q* Q E  H*  Q* Q E  H*  Q* Q E  H*  Q* Q E  H*
G: |---------|----|---------|----|---------|----|---------|----|
D:6|---------|----|---------|----|---------|----|---------|----|
A:8|-5=(5)-4-|-2--|-3=(3)---|-3--|-5=(5)-4-|-2--|-3=(3)---|-3--|
E: |---------|----|-------3-|----|---------|----|-------3-|----|

   Q* Q E  H*  Q* Q E  Q* E E E  Q* E E E
G: |---------|----|---------|-----------|-----------|
D:6|---------|----|---------|-----------|-----------|
A:8|-5=(5)-4-|-2--|-3=(3)---|-3=(3)---3-|-2=(2)---2-|
E: |---------|----|-------3-|-------3---|-------2---|


   Q* E E E  E E E Q*  E E E E E E
G: |-----------|-----------|---------------|
D:6|-----------|-----------|---------------|
A:8|-3=(3)---3-|-5-0-5=(5)===(5)-5-5-5-4-3-|
E: |-------3---|-----------|---------------|


   Q* Q E  Q* E E E  Q* Q E  Q* E E E
G: |---------|-----------|---------|-----------|
D:6|---------|-----------|---------|-----------|
A:8|-2=(2)-0-|-------2-4-|-5=(5)-0-|-5=(5)-4-3-|
E: |---------|-3=(3)-----|---------|-----------|


   Q* Q E  Q* E E E  Q* E E E  E E E E E E
G: |---------|-----------|----------|-------------|
D:6|---------|-----------|----------|-------------|
A:8|-2=(2)-0-|-------2-4-|-5--5-4-2-|---0---0---1-|
E: |---------|-3=(3)-----|----------|-------------|


   Q* Q E  Q* E E E  Q* Q E  E E E E E E
G: |---------|-----------|---------|-------------|
D:6|---------|-----------|---------|-------------|
A:8|-2=(2)-0-|-------2-4-|-5=(5)-0-|-5-5-5-5-4-3-|
E: |---------|-3=(3)-----|---------|-------------|


   Q* E E E  Q* E E E  E E E Q*  Q* E E E
G: |-----------|-----------|-----------|-----------|
D:6|-----------|-----------|-----------|-----------|
A:8|-2=(2)---2-|-3=(3)---3-|-5-0-5=(5)===(5)-0-2-4-|
E: |-------2---|-------3---|-----------|-----------|


Q* Q E  Q* Q E  Q* Q E  Q* Q E  Q* Q E  Q* Q E  Q* Q E Q* Q E
G: |------------------------------------------------------------------------|
D:6|------------------------------------------------------------------------|
A:8|-5=(5)-4--2=(2)-2--3=(3)----3=(3)-4--5=(5)-4--2=(2)-2--3=(3)----3=(3)-4-|
E: |-------------------------3-----------------------------------3----------|


   Q* Q E  Q* Q E  Q* Q E  Q* E E E
G: |---------|---------|---------|-----------|
D:6|---------|---------|---------|-----------|
A:8|-5=(5)-4-|-2=(2)-2-|-3=(3)---|-3=(3)---3-|
E: |---------|---------|-------3-|-------3---|


   Q* E E E  Q* E E E  E E E E E E  E E E E E E
G: |-----------|-----------|---------------|-------------|
D:6|-----------|-----------|---------------|-------------|
A:8|-2=(2)---2-|-3=(3)---3-|-5-0-5=(5)-5-5-|-5-5-5-5-4-3-|
E: |-------2---|-------3---|---------------|-------------|


   Q* Q E  Q* E E E  Q* Q E  Q* E E E
G: |---------|-----------|---------|-----------|
D:6|---------|-----------|---------|-----------|
A:8|-2=(2)-0-|-------2-4-|-5=(5)-0-|-5=(5)-4-3-|
E: |---------|-3=(3)-----|---------|-----------|


   Q* Q E  Q* E E E  Q* E E E  E E E E E E
G: |---------|-----------|----------|-------------|
D:6|---------|-----------|----------|-------------|
A:8|-2=(2)-0-|-------2-4-|-5--5-4-2-|---0---0---1-|
E: |---------|-3=(3)-----|----------|-------------|


   Q* Q E  Q* E E E  Q* Q E  E E E E E E
G: |---------|-----------|---------|-------------|
D:6|---------|-----------|---------|-------------|
A:8|-2=(2)-0-|-------2-4-|-5=(5)-0-|-5-5-5-5-4-3-|
E: |---------|-3=(3)-----|---------|-------------|


   Q* E E E  Q* E E E  E E E Q*  Q* E E E
G: |-----------|-----------|-----------|-----------|
D:6|-----------|-----------|-----------|-----------|
A:8|-2=(2)---2-|-3=(3)---3-|-5-0-5=(5)===(5)-0-2-4-|
E: |-------2---|-------3---|-----------|-----------|


   Q* E E E  Q* E E E  E E E E E E  E E E E E E
G: |-----------|-----------|-------------|-------------|
D:6|-----------|-------0-2-|---7---------|-------------|
A:8|-2=(2)---2-|-3=(3)-----|-5---5-5-5-5-|-5-5-5-5-2-4-|
E: |-------2---|-----------|-------------|-------------|


   Q* Q E  Q* Q E  Q* Q E  Q* E E E  Q* Q E  Q* Q E  Q* Q E
G: |--------|---------|---------|-----------|--------|---------|---------|
D:6|--------|---------|---------|-----------|--------|---------|---------|
A:8|-5--5-4-|-2=(2)-2-|-3=(3)---|-3=(3)-3-4-|-5--5-4-|-2=(2)-2-|-3=(3)---|
E: |--------|---------|-------3-|-----------|--------|---------|-------3-|


   Q* E E E
G: |-----------|
D:4|-------0-2-|
A:4|-3=(3)-----|
E: |-----------|


   Q* Q E  Q* Q E  Q* Q E  Q* E E E
G: |--------|---------|---------|----------|
D:6|--------|---------|---------|----------|
A:8|-5--5-4-|-2=(2)-2-|-3=(3)---|-3--3---3-|
E: |--------|---------|-------3-|------3---|


   Q* E E E  Q* E E E  E E E Q*  H*
G: |-----------|----------|-----------|----|
D:6|-----------|----------|-----------|----|
A:8|-2=(2)---2-|-3--3---3-|-5-0-5=(5)===5--|
E: |-------2---|------3---|-----------|----|


   Q* E E E  Q* E E E  E E E Q*  H*
G: |-----------|-----------|-----------|----|
D:6|-----------|-------0-2-|---7-------|----|
A:8|-2=(2)---2-|-3=(3)-----|-5---5=(5)===5--|
E: |-------2---|-----------|-----------|----|


						   s p
----------        ----------        -------|
----5h8--- Hammeron    ----(8)--- Ghost     ----6--| slap n'
----------        ---------- Note      -------| pop
----5p8--- Pulloff    ----------        --3----|


----------        -------x-- Dead      -----.--|
----5/8--- Slide Up    ---------- Note      -----7--| Staccato
----------        ----------        --.-----|
----5\8--- Slide Down   ---------- Palm      --5-----|
			   P.M.  Mute
 E E E
-------          -------- (0:30)      --------|
-7---5- Rest       ---7----          ---5^---| Bend
-------(shown w/ rhythm  -5---7--  ^        --------|
-------   note)    -------- time stamp    --------|

			   W~		       H* S*
----------        ----------         --------|
-4:------- Time      ---------- Let       -----7--| Dotted
-4:------- Signature   ---6------ Ring      -7------| Note
----------        ----------         --------|

Rhythm:
 W = whole note
 H = half note
 Q = quarter note
 E = eighth note
 S = sixteenth note
 W* = dotted whole note
 H* = dotted half note
 Q* = dotted quarter note
 E* = dotted eighth note

Almost there ...

Sign in to get your own page with links to favourite songs and more. You are just one click away...

Login with Facebook Login with Google