Log in

One click and you are in

Login with Facebook Login with Google

Why sign up and log in

Guitar Tabs Explorer
Journey tabs for Lay it down

Guitar tabs with lyrics

  • Difficulty: Intermediate
Tuning: Standard (E A D G B E)

Guitar 1

     A chord diagramE MajorE  A chord diagramE MajorE  A chord diagramE MajorE  A chord diagramE MajorE  A chord diagramE MajorE  A chord diagramE MajorE  A chord diagramE MajorE  A chord diagramE MajorE     A chord diagramE MajorE  A chord diagramE MajorE  Q     A chord diagramE MajorE  A chord diagramE MajorE  A chord diagramE MajorE  A chord diagramE MajorE
A chord diagramE MajorE||--------3--------3--------|--3-----------------------|
A chord diagramBB||-----3--------3--------3--|--------------------------|
A chord diagramG+G||--------------------------|--------------------------|
A chord diagramD MajorD||--3--L--L--2--L--L--------|--------------------------|
A chord diagramA augmentedA||--------------------3--L--|--L--1--Lb----------------|
A chord diagramE MajorE||--------------------------|--------------3--1--3-----|

  A chord diagramE MajorE  A chord diagramE MajorE  A chord diagramE MajorE  A chord diagramE MajorE  A chord diagramE MajorE  A chord diagramE MajorE  A chord diagramE MajorE  A chord diagramE MajorE     A chord diagramE MajorE  A chord diagramE MajorE  Q    A chord diagramE MajorE  A chord diagramE MajorE  Q       A chord diagramE MajorE  A chord diagramE MajorE  A chord diagramE MajorE  A chord diagramE MajorE  A chord diagramE MajorE  A chord diagramE MajorE  A chord diagramE MajorE  A chord diagramE MajorE
--------3--------3--------|--3---------------------|--------3--------3--------|
-----3--------3--------3--|------------------------|-----3--------3--------3--|
--------------------------|------------------------|--------------------------|
--3--L--L--2--L--L-----L--|------------------------|--3--L--L--2--L--L-----L--|
--------------------3-----|--L--1--L---------------|--------------------3-----|
--------------------------|-------------3--1--3----|--------------------------|


  A chord diagramE MajorE  A chord diagramE MajorE  Q    A chord diagramE MajorE  A chord diagramE MajorE  Q       A chord diagramE MajorE  A chord diagramE MajorE  A chord diagramE MajorE  A chord diagramE MajorE  A chord diagramE MajorE  A chord diagramE MajorE  Q       H        Q    A chord diagramE MajorE  A chord diagramE MajorE
--3---------------------|--------3--------3--L----|--L--------L----3--3--|
------------------------|-----3--------3-----L----|--L--------L----3--3--|
------------------------|-------------------------|----------------0--0--|
------------------------|--3--L--L--2--L--L-------|----------------0--0--|
--L--1--L---------------|--------------------3----|--L--------L----x--x--|
-------------3--1--3----|-------------------------|----------------3--3--|


           PM PM PM PM          PM PM PM
  H        A chord diagramE MajorE  A chord diagramE MajorE  A chord diagramE MajorE  A chord diagramE MajorE     A chord diagramE MajorE  A chord diagramE MajorE  A chord diagramE MajorE  A chord diagramE MajorE  A chord diagramE MajorE  A chord diagramE MajorE  A chord diagramE MajorE  A chord diagramE MajorE     H        Q.     A chord diagramE MajorE
--L--------------------|--3--------------3--3-----|---------------------|
--L--------------------|--3--------------3--3-----|---------------------|
--L--------------------|--------------------------|---------------------|
--L--------------------|-----------------------2--|--L--------L------3--|
--L--------5--5--5--5--|--------5--5--5--------2--|--L--------L------3--|
--L--------3--3--3--3--|--------3--3--3--------0--|--L--------L------1--|

                                     PM PM PM PM          PM PM PM
  Q.      A chord diagramE MajorE  A chord diagramE MajorE  A chord diagramE MajorE  A chord diagramE MajorE  A chord diagramE MajorE     H        A chord diagramE MajorE  A chord diagramE MajorE  A chord diagramE MajorE  A chord diagramE MajorE     A chord diagramE MajorE  A chord diagramE MajorE  A chord diagramE MajorE  A chord diagramE MajorE  A chord diagramE MajorE  A chord diagramE MajorE  A chord diagramE MajorE  A chord diagramE MajorE
----------------------3--|--L--------------------|--3--------------3--3-----|
----------------------3--|--L--------------------|--3--------------3--3-----|
----------------------0--|--L--------------------|--------------------------|
--L----------------------|-----------------------|-----------------------2--|
--L----------------------|-----------5--5--5--5--|--------5--5--5--------2--|
--L------/3--1--L--3--3--|--L--------3--3--3--3--|--------3--3--3--------0--|


                                                            PM PM PM PM
  H        Q.     A chord diagramE MajorE     Q.      A chord diagramE MajorE   A chord diagramE MajorE  A chord diagramE MajorE  A chord diagramE MajorE  A chord diagramE MajorE     H        A chord diagramE MajorE  A chord diagramE MajorE  A chord diagramE MajorE  A chord diagramE MajorE
---------------------|-----------------------3--|--L--------------------|
---------------------|-----------------------3--|--L--------------------|
---------------------|-----------------------0--|--L--------------------|
--L--------L------3--|--L-----------------------|-----------------------|
--L--------L------3--|--L-----------------------|-----------5--5--5--5--|
--L--------L------1--|--L------/3s--1--L--3--L--|--L--------3--3--3--3--|


       NH      \1/    \1/    NH
               |------3------|
  A chord diagramE MajorE    A chord diagramE MajorE  A chord diagramE MajorE    Q      Q      Q    A chord diagramE MajorE     H        Q.     A chord diagramE MajorE
-------------------------------------|---------------------|
-------------------------------------|---------------------|
-----5--L--L----L----L-------|---------------------|
----------------------------------2--|--L--------L------3--|
----------------------------------2--|--L--------L------3--|
----------------------------------0--|--L--------L------1--|


                                      PM PM PM PM          PM PM PM
  Q.      A chord diagramE MajorE   A chord diagramE MajorE  A chord diagramE MajorE  A chord diagramE MajorE  A chord diagramE MajorE     H        A chord diagramE MajorE  A chord diagramE MajorE  A chord diagramE MajorE  A chord diagramE MajorE     A chord diagramE MajorE  A chord diagramE MajorE  A chord diagramE MajorE  A chord diagramE MajorE  A chord diagramE MajorE  A chord diagramE MajorE  A chord diagramE MajorE  A chord diagramE MajorE
-----------------------3--|--L--------------------|--3--------------3--3-----|
-----------------------3--|--L--------------------|--3--------------3--3-----|
-----------------------0--|--L--------------------|--------------------------|
--L-----------------------|-----------------------|-----------------------2--|
--L-----------------------|-----------5--5--5--5--|--------5--5--5--------2--|
--L------/3s--1--L--3--L--|--L--------3--3--3--3--|--------3--3--3--------0--|


  H        Q.     A chord diagramE MajorE     Q.      A chord diagramE MajorE   A chord diagramE MajorE  A chord diagramE MajorE  A chord diagramE MajorE  S S    H        Q    A chord diagramE MajorE  A chord diagramE MajorE
---------------------|---------------------------|--2--------L----------|
---------------------|---------------------------|--3--------L-------3--|
---------------------|-----------------------x-x-|--2--------L-------0--|
--L--------L------3--|--L--------------------x-x-|--0--------L-------2--|
--L--------L------3--|--L--------------------x-x-|-------------------3--|
--L--------L------1--|--L------/3s--1--L---------|----------------------|


  H        Q.     S S    H        Q    A chord diagramE MajorE  A chord diagramE MajorE     A chord diagramE MajorE  A chord diagramE MajorE  A chord diagramE MajorE  A chord diagramE MajorE  H
----------------------|--2--------L----------|-----------------------|
--L--------L------3-3-|--3--------L-------3--|-----3-----3--L--------|
--L--------L------0-0-|--2--------L----0--0--|-----0-----0--L--------|
--L--------L------2-2-|--0--------L----0--2--|-----2-----2--L--------|
--L--------L----------|-------------------3--|-----3-----3--L--------|
----------------------|----------------------|-----------------------|


  H        Q    A chord diagramE MajorE  A chord diagramE MajorE     H        Q.     S S    H        Q    A chord diagramE MajorE  A chord diagramE MajorE
--2--------L----------|----------------------|--2--------L----------|
--3--------L-------3--|--L--------L------3-3-|--3--------L-------3--|
--2--------L----0--0--|--L--------L------0-0-|--2--------L-------0--|
--0--------L----0--2--|--L--------L------2-2-|--0--------L-------2--|
-------------------3--|--L--------L----------|-------------------3--|
----------------------|----------------------|----------------------|


  A chord diagramE MajorE  A chord diagramE MajorE  A chord diagramE MajorE  A chord diagramE MajorE  H           A chord diagramE MajorE  A chord diagramE MajorE  A chord diagramE MajorE  A chord diagramE MajorE  A chord diagramE MajorE  A chord diagramE MajorE  A chord diagramE MajorE  A chord diagramE MajorE     A chord diagramE MajorE  A chord diagramE MajorE  Q     A chord diagramE MajorE  A chord diagramE MajorE  A chord diagramE MajorE  A chord diagramE MajorE
-----------------------|--------3--------3--------|--3-----------------------|
-----3-----3--L--------|-----3--------3--------3--|--------------------------|
-----0-----0--L--------|--------------------------|--------------------------|
-----2-----2--L--------|--3--L--L--2--L--L--------|--------------------------|
-----3-----3--L--------|--------------------3--L--|--L--1--Lb----------------|
-----------------------|--------------------------|--------------3--1--3-----|


  A chord diagramE MajorE  A chord diagramE MajorE  A chord diagramE MajorE  A chord diagramE MajorE  A chord diagramE MajorE  A chord diagramE MajorE  A chord diagramE MajorE  A chord diagramE MajorE     A chord diagramE MajorE  A chord diagramE MajorE  Q    A chord diagramE MajorE  A chord diagramE MajorE  Q       A chord diagramE MajorE  A chord diagramE MajorE  A chord diagramE MajorE  A chord diagramE MajorE  A chord diagramE MajorE  A chord diagramE MajorE  A chord diagramE MajorE  A chord diagramE MajorE
--------3--------3--------|--3-------------3--L----|--------3--------3--------|
-----3--------3--------3--|----------------3--L----|-----3--------3--------3--|
--------------------------|----------------0--L----|--------------------------|
--3--L--L--2--L--L--------|------------------------|--3--L--L--2--L--L--------|
--------------------3--L--|--L--1--L---------------|--------------------3--L--|
--------------------------|-------------3----------|--------------------------|


  A chord diagramE MajorE  A chord diagramE MajorE  Q    A chord diagramE MajorE  A chord diagramE MajorE  A chord diagramE MajorE  A chord diagramE MajorE     A chord diagramE MajorE  A chord diagramE MajorE  A chord diagramE MajorE  A chord diagramE MajorE  A chord diagramE MajorE  A chord diagramE MajorE  Q       A chord diagramE MajorE  Q.      Q    A chord diagramE MajorE  A chord diagramE MajorE
--3--L--L----------------|--------3--------3--L----|--L--L-------L----3--3--|
-------------------------|-----3--------3-----L----|--L--L-------L----3--3--|
-------------------------|-------------------------|------------------0--0--|
-------------------------|--3--L--L--2--L--L-------|------------------0--0--|
--L--1--L----------------|--------------------3----|--L--1~-----------x--x--|
-------------3--1--3-----|-------------------------|-------------3----3--3--|


  W                   H        A chord diagramE MajorE  Q     A chord diagramE MajorE     H.           A chord diagramE MajorE  A chord diagramE MajorE
--L----------------|--L--------------------|---------------------|
--L----------------|--L--------------------|---------------------|
--L----------------|--L--------------------|---------------------|
--L----------------|--L--------------------|---------------------|
-------------------|--------------8\-------|------------------3--|
--L----------------|--L-----------------0--|--L------------L--1--|


                                                        PM PM
  Q.      A chord diagramE MajorE   A chord diagramE MajorE  A chord diagramE MajorE  A chord diagramE MajorE  S S    W                   A chord diagramE MajorE  A chord diagramE MajorE  A chord diagramE MajorE  A chord diagramE MajorE  A chord diagramE MajorE  A chord diagramE MajorE  A chord diagramE MajorE  A chord diagramE MajorE
-----------------------3-3-|--3----------------|--L--3--------3--3--------|
-----------------------3-3-|--3----------------|--L--3--------3--3--------|
-----------------------0-0-|--0----------------|--L-----------------------|
-----------------------0-0-|--0----------------|--L-----------------------|
--L------------------------|--x----------------|--------------------------|
--L------/3s--1--L--L------|--3----------------|--L-----3--3--------0--0--|


                                                             SH
  H        Q.     A chord diagramE MajorE     Q.      A chord diagramE MajorE  A chord diagramE MajorE  A chord diagramE MajorE  A chord diagramE MajorE  A chord diagramE MajorE     H          A chord diagramE MajorE   A chord diagramE MajorE  A chord diagramE MajorE  A chord diagramE MajorE
---------------------|----------------------3--|--L-----------------------|
---------------------|----------------------3--|--L-----------------------|
---------------------|----------------------0--|--L--------5b-----------|
---------------------|-------------------------|--------------------------|
------------------3--|--L----------------------|--------------------------|
--L--------L------1--|--L------/3--1--L--3-----|--------------------------|


  A chord diagramE MajorE  A chord diagramE MajorE  A chord diagramE MajorE  A chord diagramE MajorE  A chord diagramE MajorE  A chord diagramE MajorE  A chord diagramE MajorE  A chord diagramE MajorE     H        Q.     A chord diagramE MajorE      Q.      A chord diagramE MajorE   A chord diagramE MajorE  A chord diagramE MajorE  A chord diagramE MajorE  A chord diagramE MajorE
--------------------------|----------------------|-----------------------3--|
--------------------------|----------------------|-----------------------3--|
--------------------------|----------------------|-----------------------0--|
-----------------------2--|--L--------L----------|--------------------------|
-----------------------2--|--L--------L------3---|--L-----------------------|
-----------------------0--|--L--------L------1~--|--L------/3s--1--L--3--L--|


                           NH      \1/    \1/    NH
                                   |------3------|
  W                   A chord diagramE MajorE    A chord diagramE MajorE  A chord diagramE MajorE    Q      Q      Q    A chord diagramE MajorE     H        Q.     A chord diagramE MajorE
--L----------------|--L----------------------------------|---------------------|
--L----------------|--L----------------------------------|---------------------|
--L----------------|--L--5--L--L----L----L-------|---------------------|
-------------------|-------------------------------------|------------------3--|
-------------------|-------------------------------------|------------------3--|
--L----------------|--L-------------------------------0--|--L--------L------1--|


                                      PM PM PM PM          PM PM PM
  Q.      A chord diagramE MajorE   A chord diagramE MajorE  A chord diagramE MajorE  A chord diagramE MajorE  A chord diagramE MajorE     H        A chord diagramE MajorE  A chord diagramE MajorE  A chord diagramE MajorE  A chord diagramE MajorE     A chord diagramE MajorE  A chord diagramE MajorE  A chord diagramE MajorE  A chord diagramE MajorE  A chord diagramE MajorE  A chord diagramE MajorE  A chord diagramE MajorE  A chord diagramE MajorE
-----------------------3--|--L--------------------|--3--------------3--3-----|
-----------------------3--|--L--------------------|--3--------------3--3-----|
-----------------------0--|--L--------------------|--------------------------|
--L-----------------------|-----------------------|-----------------------2--|
--L-----------------------|-----------------------|-----------------------2--|
--L------/3s--1--L--3--L--|--L--------3--3--3--3--|--------3--3--3--------0--|


  H        Q.     A chord diagramE MajorE     Q.      A chord diagramE MajorE   A chord diagramE MajorE  A chord diagramE MajorE  A chord diagramE MajorE  S S    H        Q    A chord diagramE MajorE  A chord diagramE MajorE
---------------------|---------------------------|--2--------L----------|
---------------------|---------------------------|--3--------L-------3--|
---------------------|-----------------------x-x-|--2--------L-------0--|
--L--------L---------|-----------------------x-x-|--0--------L-------2--|
--L--------L------3--|--L--------------------x-x-|-------------------3--|
--L--------L------1--|--L------/3s--1--L---------|----------------------|


  H        Q.     S S    H        Q    A chord diagramE MajorE  A chord diagramE MajorE     A chord diagramE MajorE  A chord diagramE MajorE  A chord diagramE MajorE  A chord diagramE MajorE  H
----------------------|--2--------L----------|-----------------------|
--L--------L------3-3-|--3--------L-------3--|-----3-----3--L--------|
--L--------L------0-0-|--2--------L----0--0--|-----0-----0--L--------|
--L--------L------2-2-|--0--------L----0--2--|-----2-----2--L--------|
--L--------L----------|-------------------3--|-----3-----3--L--------|
----------------------|----------------------|-----------------------|


  H        Q    A chord diagramE MajorE  A chord diagramE MajorE     H        Q.     S S    H        Q    A chord diagramE MajorE  A chord diagramE MajorE
--2--------L----------|------------------2-2-|--2--------L----------|
--3--------L-------3--|--L--------L------3-3-|--3--------L-------3--|
--2--------L----0--0--|--L--------L------2-2-|--2--------L-------0--|
--0--------L----0--2--|--L--------L------0-0-|--0--------L-------2--|
-------------------3--|--L--------L----------|-------------------3--|
----------------------|----------------------|----------------------|


  A chord diagramE MajorE  A chord diagramE MajorE  A chord diagramE MajorE  A chord diagramE MajorE  H           A chord diagramE MajorE  A chord diagramE MajorE  A chord diagramE MajorE  A chord diagramE MajorE  A chord diagramE MajorE  A chord diagramE MajorE  A chord diagramE MajorE  A chord diagramE MajorE     A chord diagramE MajorE  A chord diagramE MajorE  Q     A chord diagramE MajorE  A chord diagramE MajorE  A chord diagramE MajorE  A chord diagramE MajorE
-----------------------|--------3--------3--------|--3-----------------------|
-----3-----3--L--------|-----3--------3--------3--|--------------------------|
-----0-----0--L--------|--------------------------|--------------------------|
-----2-----2--L--------|--3--L--L--2--L--L--------|--------------------------|
-----3-----3--L--------|--------------------3--L--|--L--1--Lb----------------|
-----------------------|--------------------------|--------------3--1--3-----|


  A chord diagramE MajorE  A chord diagramE MajorE  A chord diagramE MajorE  A chord diagramE MajorE  A chord diagramE MajorE  A chord diagramE MajorE  A chord diagramE MajorE  A chord diagramE MajorE     A chord diagramE MajorE  A chord diagramE MajorE  Q    A chord diagramE MajorE  A chord diagramE MajorE  Q       A chord diagramE MajorE  A chord diagramE MajorE  A chord diagramE MajorE  A chord diagramE MajorE  A chord diagramE MajorE  A chord diagramE MajorE  A chord diagramE MajorE  A chord diagramE MajorE
--------3--------3--------|--3-------------3--L----|--------3--------3--------|
-----3--------3--------3--|----------------3--L----|-----3--------3--------3--|
--------------------------|----------------0--L----|--------------------------|
--3--L--L--2--L--L--------|------------------------|--3--L--L--2--L--L--------|
--------------------3--L--|--L--1--L---------------|--------------------3--L--|
--------------------------|-------------3----------|--------------------------|


  A chord diagramE MajorE  A chord diagramE MajorE  Q    A chord diagramE MajorE  A chord diagramE MajorE  A chord diagramE MajorE  A chord diagramE MajorE     A chord diagramE MajorE  A chord diagramE MajorE  A chord diagramE MajorE  A chord diagramE MajorE  A chord diagramE MajorE  A chord diagramE MajorE  Q       A chord diagramE MajorE  Q.      Q    A chord diagramE MajorE  A chord diagramE MajorE
--3--L--L----------------|--------3--------3--L----|--L--L-------L----3--3--|
-------------------------|-----3--------3-----L----|--L--L-------L----3--3--|
-------------------------|-------------------------|------------------0--0--|
-------------------------|--3--L--L--2--L--L-------|------------------0--0--|
--L--1--L----------------|--------------------3----|--L--1~-----------x--x--|
-------------3--1--3-----|-------------------------|-------------3----3--3--|


  W                   A chord diagramE MajorE  A chord diagramE MajorE  A chord diagramE MajorE  A chord diagramE MajorE  A chord diagramE MajorE  A chord diagramE MajorE  A chord diagramE MajorE  A chord diagramE MajorE     H        Q    A chord diagramE MajorE  A chord diagramE MajorE
--L----------------|--L--3--3--------3--------|----------------------|
--L----------------|--L--3--3--------3--------|----------------------|
--L----------------|--L-----------0-----0-----|----------------------|
--L----------------|--L-----------0-----0-----|----------------------|
--L----------------|--L-----------------------|-------------------3--|
--L----------------|--L--------3-----------0--|--L--------L----0--1--|


                                            PM          PM PM PM
  Q.      A chord diagramE MajorE  A chord diagramE MajorE  A chord diagramE MajorE  A chord diagramE MajorE  A chord diagramE MajorE     H        Q.     A chord diagramE MajorE     A chord diagramE MajorE  A chord diagramE MajorE  A chord diagramE MajorE  A chord diagramE MajorE  A chord diagramE MajorE  A chord diagramE MajorE  A chord diagramE MajorE  A chord diagramE MajorE
----------------------3--|--L--------L---------|--3--3-----------3--3-----|
----------------------3--|--L--------L---------|--3--3-----------3--3-----|
----------------------0--|--L--------L---------|--------------------------|
----------------------0--|--L--------L---------|--------------------------|
--L-------------------x--|---------------------|-----------------------2--|
--L------/3--1--L--3--3--|--L--------L------3--|--------3--3--3--------0--|


  H        Q.     A chord diagramE MajorE     Q.      A chord diagramE MajorE   A chord diagramE MajorE  A chord diagramE MajorE  A chord diagramE MajorE  A chord diagramE MajorE     W
---------------------|-----------------------3--|--3----------------|
---------------------|-----------------------3--|--3----------------|
---------------------|-----------------------0--|--0----------------|
---------------------|-----------------------0--|--0----------------|
--L--------L------3--|--L-----------------------|-------------------|
--L--------L------1--|--L------/3s--1--L--3--3--|-------------------|


        PM PM       PM                     PM
  A chord diagramE MajorE  A chord diagramE MajorE  A chord diagramE MajorE  A chord diagramE MajorE  A chord diagramE MajorE  A chord diagramE MajorE  A chord diagramE MajorE  A chord diagramE MajorE     H        Q    A chord diagramE MajorE  A chord diagramE MajorE     Q.      A chord diagramE MajorE   A chord diagramE MajorE  A chord diagramE MajorE  A chord diagramE MajorE  A chord diagramE MajorE
--L--3--------3--3--------|----------------------|-----------------------3--|
--L--3--------3--3--------|----------------------|-----------------------3--|
--L-----------------------|----------------------|-----------------------0--|
--L-----------------------|----------------------|--------------------------|
-----------------------2--|--L--------L-------3--|--L-----------------------|
--------3--3--------0--0--|--L--------L----0--1--|--L------/3s--1--L--3-----|


                 PM             PM
  H        A chord diagramE MajorE  A chord diagramE MajorE  A chord diagramE MajorE  A chord diagramE MajorE     A chord diagramE MajorE  A chord diagramE MajorE  A chord diagramE MajorE  A chord diagramE MajorE  A chord diagramE MajorE  A chord diagramE MajorE  A chord diagramE MajorE  A chord diagramE MajorE     H        Q.     A chord diagramE MajorE
--3--------L--3--------|--3--3-----------3--3-----|---------------------|
--3--------L--3--------|--3--3-----------3--3-----|---------------------|
--0--------L--0--------|--0--0--------------------|---------------------|
--0--------L--0--------|--------------------------|---------------------|
-----------------------|-----------------------2--|--L--------L------3--|
-----------------3--3--|--------3--3--3--------0--|--L--------L------1--|


  Q.      A chord diagramE MajorE   H           H        Q    A chord diagramE MajorE  A chord diagramE MajorE     H        Q.     S S
-----------------------|--2--------L----------|------------------2-2-|
-----------------------|--3--------L-------3--|--L--------L------3-3-|
-----------------------|--2--------L-------0--|--L--------L------2-2-|
-----------------------|--0--------L-------2--|--L--------L------0-0-|
--L--------------------|----------------3--3--|--L--------L----------|
--L------/3s--1--------|----------------------|----------------------|


  H        Q    A chord diagramE MajorE  A chord diagramE MajorE     A chord diagramE MajorE  A chord diagramE MajorE  A chord diagramE MajorE  A chord diagramE MajorE  H           H        Q    A chord diagramE MajorE  A chord diagramE MajorE
--2--------L----------|-----------------------|--2--------L----------|
--3--------L-------3--|-----3-----3--L--------|--3--------L-------3--|
--2--------L-------0--|-----0-----0--L--------|--2--------L-------0--|
--0--------L-------2--|-----2-----2--L--------|--0--------L-------2--|
----------------3--3--|-----3-----3--L--------|----------------3--3--|
----------------------|-----------------------|----------------------|


  H        Q.     S S    H        Q    A chord diagramE MajorE  A chord diagramE MajorE     A chord diagramE MajorE  A chord diagramE MajorE  A chord diagramE MajorE  A chord diagramE MajorE  Q     Q
------------------2-2-|--2--------L-------3--|-----3-----3--------------|
--L--------L------3-3-|--3--------L-------3--|-----3-----3--L-----------|
--L--------L------2-2-|--2--------L-------0--|-----0-----0--L-----------|
--L--------L------0-0-|--0--------L-------2--|-----2-----2--L-----------|
--L--------L----------|----------------3--3--|-----3-----3--L----10\----|
----------------------|----------------------|--------------------------|


  Q.      Q.      Q        A chord diagramE MajorE  A chord diagramE MajorE  A chord diagramE MajorE  A chord diagramE MajorE  A chord diagramE MajorE  A chord diagramE MajorE  A chord diagramE MajorE  A chord diagramE MajorE     Q.      Q.      Q
------------------------|--------------------------|------------------------|
------------------------|--------------------------|------------------------|
------------------------|--------------------------|------------------------|
------------------------|--------------------------|------------------------|
--3~------1~------------|--------------1-----------|--3~------1~------------|
------------------3~----|--L--1--3--1-----3--L--1--|------------------3~----|


  A chord diagramE MajorE  A chord diagramE MajorE  S  S  A chord diagramE MajorE  A chord diagramE MajorE  A chord diagramE MajorE  A chord diagramE MajorE  A chord diagramE MajorE     Q.      Q.      Q
-----------------------------|------------------------|
-----------------------------|------------------------|
-----------------------------|------------------------|
-----------------------------|------------------------|
--------3s-4s-3--1-----------|--3~------1~------------|
--L--1--------------3--3--1--|------------------3~----|


  A chord diagramE MajorE  A chord diagramE MajorE  A chord diagramE MajorE  A chord diagramE MajorE  A chord diagramE MajorE  A chord diagramE MajorE  A chord diagramE MajorE  A chord diagramE MajorE     Q.      Q.      Q
--------------------------|------------------------|
--------------------------|------------------------|
--------------------------|------------------------|
--------------------------|------------------------|
--------------1-----------|--3~------1~------------|
--L--1--3--1-----3--L--1--|------------------3~----|


  A chord diagramE MajorE  A chord diagramE MajorE  S  S  A chord diagramE MajorE  A chord diagramE MajorE  A chord diagramE MajorE  A chord diagramE MajorE  A chord diagramE MajorE     A chord diagramE MajorE  A chord diagramE MajorE  A chord diagramE MajorE  A chord diagramE MajorE  A chord diagramE MajorE  A chord diagramE MajorE  A chord diagramE MajorE  A chord diagramE MajorE
-----------------------------|--------3--------3--------|
-----------------------------|-----3--------3--------3--|
-----------------------------|--------------------------|
-----------------------------|--3--L--L--2--L--L--------|
--------3s-4s-3--1-----------|--------------------3--L--|
--L--1--------------3--3--1--|--------------------------|


  A chord diagramE MajorE  A chord diagramE MajorE  Q     A chord diagramE MajorE   A chord diagramE MajorE  A chord diagramE MajorE  A chord diagramE MajorE     A chord diagramE MajorE  A chord diagramE MajorE  A chord diagramE MajorE  A chord diagramE MajorE  A chord diagramE MajorE  A chord diagramE MajorE  A chord diagramE MajorE  A chord diagramE MajorE     A chord diagramE MajorE  A chord diagramE MajorE  Q    A chord diagramE MajorE  A chord diagramE MajorE  Q
--3------------------------|--------3--------3--------|--3-------------3--L----|
---------------------------|-----3--------3--------3--|----------------3--L----|
---------------------------|--------------------------|----------------0--L----|
---------------------------|--3--L--L--2--L--L--------|------------------------|
--L--1--Lb-----------------|--------------------3--L--|--L--1--L---------------|
--------------3s--1--3-----|--------------------------|-------------3----------|


  A chord diagramE MajorE  A chord diagramE MajorE  A chord diagramE MajorE  A chord diagramE MajorE  A chord diagramE MajorE  A chord diagramE MajorE  A chord diagramE MajorE  A chord diagramE MajorE     A chord diagramE MajorE  A chord diagramE MajorE  Q    A chord diagramE MajorE   A chord diagramE MajorE  A chord diagramE MajorE  A chord diagramE MajorE     A chord diagramE MajorE  A chord diagramE MajorE  A chord diagramE MajorE  A chord diagramE MajorE  A chord diagramE MajorE  A chord diagramE MajorE  Q
--------3--------3--------|--3--L--L-----------------|--------3--------3--L----|
-----3--------3--------3--|--------------------------|-----3--------3-----L----|
--------------------------|--------------------------|-------------------------|
--3--L--L--2--L--L--------|--------------------------|--3--L--L--2--L--L-------|
--------------------3--L--|--L--1--L-----------------|--------------------3----|
--------------------------|-------------3s--1--3-----|-------------------------|


  A chord diagramE MajorE  Q.      Q    A chord diagramE MajorE  A chord diagramE MajorE     Q.      Q.      Q        A chord diagramE MajorE  A chord diagramE MajorE  A chord diagramE MajorE  A chord diagramE MajorE  A chord diagramE MajorE  A chord diagramE MajorE  A chord diagramE MajorE  A chord diagramE MajorE
--L--L-------L----3--3--|------------------------|--------------------------|
--L--L-------L----3--3--|------------------------|--------------------------|
------------------0--0--|------------------------|--------------------------|
------------------0--0--|------------------------|--------------------------|
--L--1~-----------x--x--|--3~------1~------------|--------------1-----------|
-------------3----3--3--|------------------3~----|--L--1--3--1-----3--L--1--|


  Q.      Q.      Q        A chord diagramE MajorE  A chord diagramE MajorE  S  S  A chord diagramE MajorE  A chord diagramE MajorE  A chord diagramE MajorE  A chord diagramE MajorE  A chord diagramE MajorE     Q.      Q.      Q
------------------------|-----------------------------|------------------------|
------------------------|-----------------------------|------------------------|
------------------------|-----------------------------|------------------------|
------------------------|-----------------------------|------------------------|
--3~------1~------------|--------3s-4s-3--1-----------|--3~------1~------------|
------------------3~----|--L--1--------------3--3--1--|------------------3~----|


  A chord diagramE MajorE  A chord diagramE MajorE  A chord diagramE MajorE  A chord diagramE MajorE  A chord diagramE MajorE  A chord diagramE MajorE  A chord diagramE MajorE  A chord diagramE MajorE     Q.      Q.      Q
--------------------------|------------------------|
--------------------------|------------------------|
--------------------------|------------------------|
--------------------------|------------------------|
--------------1-----------|--3~------1~------------|
--L--1--3--1-----3--L--1--|------------------3~----|


  A chord diagramE MajorE  A chord diagramE MajorE  S  S  A chord diagramE MajorE  A chord diagramE MajorE  A chord diagramE MajorE  A chord diagramE MajorE  A chord diagramE MajorE     A chord diagramE MajorE  A chord diagramE MajorE  A chord diagramE MajorE  A chord diagramE MajorE  A chord diagramE MajorE  A chord diagramE MajorE  A chord diagramE MajorE  A chord diagramE MajorE
-----------------------------|--------3--------3--------|
-----------------------------|-----3--------3--------3--|
-----------------------------|--------------------------|
-----------------------------|--3--L--L--2--L--L--------|
--------3s-4s-3--1-----------|--------------------3--L--|
--L--1--------------3--3--1--|--------------------------|


  A chord diagramE MajorE  A chord diagramE MajorE  Q     A chord diagramE MajorE   A chord diagramE MajorE  A chord diagramE MajorE  A chord diagramE MajorE     A chord diagramE MajorE  A chord diagramE MajorE  A chord diagramE MajorE  A chord diagramE MajorE  A chord diagramE MajorE  A chord diagramE MajorE  A chord diagramE MajorE  A chord diagramE MajorE     A chord diagramE MajorE  A chord diagramE MajorE  Q    A chord diagramE MajorE  A chord diagramE MajorE  Q
--3------------------------|--------3--------3--------|--3-------------3--L----|
---------------------------|-----3--------3--------3--|----------------3--L----|
---------------------------|--------------------------|----------------0--L----|
---------------------------|--3--L--L--2--L--L--------|------------------------|
--L--1--Lb-----------------|--------------------3--L--|--L--1--L---------------|
--------------3s--1--3-----|--------------------------|-------------3----------|


  A chord diagramE MajorE  A chord diagramE MajorE  A chord diagramE MajorE  A chord diagramE MajorE  A chord diagramE MajorE  A chord diagramE MajorE  A chord diagramE MajorE  A chord diagramE MajorE     A chord diagramE MajorE  A chord diagramE MajorE  Q    A chord diagramE MajorE   A chord diagramE MajorE  A chord diagramE MajorE  A chord diagramE MajorE     A chord diagramE MajorE  A chord diagramE MajorE  A chord diagramE MajorE  Q.     Q
--------3--------3--------|--3--L--L-----------------|--------3--L------L----|
-----3--------3--------3--|--------------------------|-----3-----L------L----|
--------------------------|--------------------------|-----------------------|
--3--L--L--2--L--L--------|--------------------------|--3--L--L--2-----------|
--------------------3--L--|--L--1--L-----------------|------------------3----|
--------------------------|-------------3s--1--3-----|-----------------------|


  H.           A chord diagramE MajorE  A chord diagramE MajorE     A chord diagramE MajorE  A chord diagramE MajorE  A chord diagramE MajorE  A chord diagramE MajorE  A chord diagramE MajorE  A chord diagramE MajorE  A chord diagramE MajorE  A chord diagramE MajorE     A chord diagramE MajorE  A chord diagramE MajorE  Q     H
--L------------L-----|--------3--------3--------|--3-----------3--------|
--L------------L-----|-----3--------3--------3--|--------------3--------|
---------------------|--------------------------|--------------0--------|
---------------------|--3--L--L--2--L--L--------|-----------------------|
--L------------L-----|--------------------3--L--|--L--1--Lb-------------|
---------------------|--------------------------|--------------3--------|


  W                   A chord diagramE MajorE  A chord diagramE MajorE  Q    H
--L----------------|--3-------------------||
--L----------------|--3-------------------||
--L----------------|--0-------------------||
-------------------|----------------------||
-------------------|----------------------||
--L----------------|--3-------------------||





Guitar 2


     W                   W                   W
A chord diagramE MajorE||-------------------|-------------------|-------------------|
A chord diagramBB||-------------------|-------------------|-------------------|
A chord diagramG+G||-------------------|-------------------|-------------------|
A chord diagramD MajorD||-------------------|-------------------|-------------------|
A chord diagramA augmentedA||-------------------|-------------------|-------------------|
A chord diagramE MajorE||-------------------|-------------------|-------------------|


  W                   W                   W
-------------------|-------------------|-------------------|
-------------------|-------------------|-------------------|
-------------------|-------------------|-------------------|
-------------------|-------------------|-------------------|
-------------------|-------------------|-------------------|
-------------------|-------------------|-------------------|


  A chord diagramE MajorE  A chord diagramE MajorE  A chord diagramE MajorE  A chord diagramE MajorE  A chord diagramE MajorE  A chord diagramE MajorE  Q       H        Q    A chord diagramE MajorE  A chord diagramE MajorE     W
--------3--------3--L----|--L--------L----3--3--|--L----------------|
-----3--------3-----L----|--L--------L----3--3--|--L----------------|
-------------------------|----------------0--0--|--L----------------|
--3--L--L--2--L--L-------|----------------0--0--|--L----------------|
--------------------3----|--L--------L----x--x--|--L----------------|
-------------------------|----------------3--3--|--L----------------|


  H        A chord diagramE MajorE  A chord diagramE MajorE  A chord diagramE MajorE  A chord diagramE MajorE     H        Q.     A chord diagramE MajorE     Q.      A chord diagramE MajorE  A chord diagramE MajorE  A chord diagramE MajorE  A chord diagramE MajorE  A chord diagramE MajorE
--L-----------3--3--0--|--L--------L---------|----------------------3--|
--L-----------3--3--0--|--L--------L---------|----------------------3--|
--L-----------------1--|--L--------L------2--|--L-------------------0--|
--L-----------------2--|--L--------L------3--|--L-------------------0--|
--L-----------------2--|--L--------L------3--|--L----------------------|
--L-----------------0--|--L--------L------1--|--L------/3--1--L--3-----|


  W                   H        A chord diagramE MajorE  A chord diagramE MajorE  A chord diagramE MajorE  A chord diagramE MajorE     H        Q.     A chord diagramE MajorE
--L----------------|--L-----------3--3--0--|--L--------L---------|
--L----------------|--L-----------3--3--0--|--L--------L---------|
--L----------------|--L-----------------1--|--L--------L------2--|
--L----------------|--L-----------------2--|--L--------L------3--|
-------------------|--------------------2--|--L--------L------3--|
-------------------|--------------------0--|--L--------L------1--|


  Q.      A chord diagramE MajorE   A chord diagramE MajorE  A chord diagramE MajorE  A chord diagramE MajorE  A chord diagramE MajorE     W                   H        A chord diagramE MajorE  A chord diagramE MajorE  A chord diagramE MajorE  A chord diagramE MajorE
-----------------------3--|--L----------------|--L-----------3--3--0--|
-----------------------3--|--L----------------|--L-----------3--3--0--|
--L--------------------0--|--L----------------|--L-----------------1--|
--L--------------------0--|--L----------------|--L-----------------2--|
--L--------------------x--|-------------------|--L-----------------2--|
--L------/3s--1--L--3--3--|--L----------------|--L-----------------0--|


  H        Q.     A chord diagramE MajorE     Q.      A chord diagramE MajorE   A chord diagramE MajorE  A chord diagramE MajorE  A chord diagramE MajorE  A chord diagramE MajorE     W
--L--------L---------|-----------------------3--|--L----------------|
--L--------L---------|-----------------------3--|--L----------------|
--L--------L------2--|--L--------------------0--|--L----------------|
--L--------L------3--|--L-----------------------|-------------------|
--L--------L------3--|--L-----------------------|-------------------|
--L--------L------1--|--L------/3s--1--L--3-----|-------------------|


  H        A chord diagramE MajorE  A chord diagramE MajorE  A chord diagramE MajorE  A chord diagramE MajorE     H        Q.     A chord diagramE MajorE     Q.      A chord diagramE MajorE   Q    A chord diagramE MajorE  A chord diagramE MajorE
--L-----------3--3--0--|--L--------L---------|-------------------------|
--L-----------3--3--0--|--L--------L---------|-------------------------|
--L-----------------1--|--L--------L------2--|--L----------------------|
--------------------2--|--L--------L------3--|--L----------------------|
--------------------2--|--L--------L------3--|--L----------------------|
--------------------0--|--L--------L------1--|--L------/3s--1----L-----|


  H        Q    A chord diagramE MajorE  A chord diagramE MajorE     H        Q.     S S    H        Q    A chord diagramE MajorE  A chord diagramE MajorE
--2--------L----------|----------------------|--2--------L----------|
--3--------L-------3--|--L--------L------3-3-|--3--------L-------3--|
--2--------L-------0--|--L--------L------0-0-|--2--------L----0--0--|
--0--------L-------2--|--L--------L------2-2-|--0--------L----0--2--|
-------------------3--|--L--------L----------|-------------------3--|
----------------------|----------------------|----------------------|


  A chord diagramE MajorE  A chord diagramE MajorE  A chord diagramE MajorE  A chord diagramE MajorE  H           H        Q    A chord diagramE MajorE  A chord diagramE MajorE     H        Q.     S S
-----------------------|--2--------L----------|----------------------|
-----3-----3--L--------|--3--------L-------3--|--L--------L------3-3-|
-----0-----0--L--------|--2--------L----0--0--|--L--------L------0-0-|
-----2-----2--L--------|--0--------L----0--2--|--L--------L------2-2-|
-----3-----3--L--------|-------------------3--|--L--------L----------|
-----------------------|----------------------|----------------------|


  H        Q    A chord diagramE MajorE  A chord diagramE MajorE     A chord diagramE MajorE  A chord diagramE MajorE  A chord diagramE MajorE  A chord diagramE MajorE  H           A chord diagramE MajorE  A chord diagramE MajorE  A chord diagramE MajorE  A chord diagramE MajorE  A chord diagramE MajorE  A chord diagramE MajorE  A chord diagramE MajorE  A chord diagramE MajorE
--2--------L----------|-----------------------|--------3--------3--------|
--3--------L-------3--|-----3-----3--L--------|-----3--------3--------3--|
--2--------L-------0--|-----0-----0--L--------|--------------------------|
--0--------L-------2--|-----2-----2--L--------|--3--L--L--2--L--L--------|
----------------3--3--|-----3-----3--L--------|--------------------3--L--|
----------------------|-----------------------|--------------------------|


  A chord diagramE MajorE  A chord diagramE MajorE  Q     A chord diagramE MajorE  A chord diagramE MajorE  A chord diagramE MajorE  A chord diagramE MajorE     A chord diagramE MajorE  A chord diagramE MajorE  A chord diagramE MajorE  A chord diagramE MajorE  A chord diagramE MajorE  A chord diagramE MajorE  A chord diagramE MajorE  A chord diagramE MajorE     A chord diagramE MajorE  A chord diagramE MajorE  Q    A chord diagramE MajorE  A chord diagramE MajorE  Q
--3-----------------------|--------3--------3--------|--3-------------3--3----|
--------------------------|-----3--------3--------3--|----------------3--3----|
--------------------------|--------------------------|----------------0--0----|
--------------------------|--3--L--L--2--L--L--------|------------------------|
--L--1--Lb----------------|--------------------3--L--|--L--1--L---------------|
--------------3--1--3-----|--------------------------|-------------3----------|


  A chord diagramE MajorE  A chord diagramE MajorE  A chord diagramE MajorE  A chord diagramE MajorE  A chord diagramE MajorE  A chord diagramE MajorE  A chord diagramE MajorE  A chord diagramE MajorE     A chord diagramE MajorE  A chord diagramE MajorE  Q    A chord diagramE MajorE  A chord diagramE MajorE  A chord diagramE MajorE  A chord diagramE MajorE     A chord diagramE MajorE  A chord diagramE MajorE  A chord diagramE MajorE  A chord diagramE MajorE  A chord diagramE MajorE  A chord diagramE MajorE  Q
--------3--------3--------|--3--L--L----------------|--------3--------3--L----|
-----3--------3--------3--|-------------------------|-----3--------3-----L----|
--------------------------|-------------------------|-------------------------|
--3--L--L--2--L--L--------|-------------------------|--3--L--L--2--L--L-------|
--------------------3--L--|--L--1--L----------------|--------------------3----|
--------------------------|-------------3--1--3-----|-------------------------|


                                           T
  A chord diagramE MajorE  Q.      Q    A chord diagramE MajorE  A chord diagramE MajorE     H         Q     A chord diagramE MajorE    A chord diagramE MajorE
--L--L-------L----3--3--|-----------15----17s--19--|
--L--L-------L----3--3--|--------------------------|
------------------0--0--|--------------------------|
------------------0--0--|--------------------------|
--L--1~-----------x--x--|--------------------------|
-------------3----3--3--|--------------------------|


         |-3-|  |---3--|              |---3--|  |--3--|
   Q     A chord diagramE MajorE   S  S   S  S  S  S  S  S  S  S   S  S  S  S
--15~---------------------------------------------------|
------------15-18p-15----18----15-15-15-18p-15----15----|
----------------------17----17-----------------17----17-|
--------------------------------------------------------|
--------------------------------------------------------|
--------------------------------------------------------|


   7  7   7  7  7  7  7  7  7   7  7  7   7  7
   S  S   S  S  S  S  S  S  S   S  S  S   S  S  S  S  S  S  S  S  A chord diagramE MajorE
----------------------------------------------------------------------|
----------------------------------------------------------------------|
--14-17p-14----14----14-14-17p-16-14-16p-14-------14------------------|
------------17----17------------------------17-15----17-15-14---------|
--------------------------------------------------------------17-17b--|
----------------------------------------------------------------------|


   Q.        A chord diagramE MajorE      Q     A chord diagramE MajorE  A chord diagramE MajorE     W                   H        A chord diagramE MajorE  A chord diagramE MajorE  A chord diagramE MajorE  A chord diagramE MajorE
-----------------------------3--|--3----------------|--L--------3--3--------|
-----------------------------3--|--3----------------|--L--------3--3--------|
-----------------------------0--|--0----------------|--L--------------------|
-----------------------------0--|--0----------------|--L--------------------|
---Lpb-------Lpbr--17\----------|-------------------|--------------------2--|
--------------------------------|-------------------|-----------------0--0--|


  H        Q.     A chord diagramE MajorE     Q.      A chord diagramE MajorE  A chord diagramE MajorE  A chord diagramE MajorE  A chord diagramE MajorE  A chord diagramE MajorE     W
---------------------|----------------------3--|--L----------------|
---------------------|----------------------3--|--L----------------|
---------------------|----------------------0--|--L----------------|
------------------3--|--L-------------------0--|--L----------------|
--L--------L------3--|--L----------------------|-------------------|
--L--------L------1--|--L------/3--1--L--3-----|-------------------|


  H        A chord diagramE MajorE  A chord diagramE MajorE  A chord diagramE MajorE  A chord diagramE MajorE     H        Q.     A chord diagramE MajorE     Q.      A chord diagramE MajorE   A chord diagramE MajorE  A chord diagramE MajorE  A chord diagramE MajorE  A chord diagramE MajorE
--L-----------3--3-----|---------------------|-----------------------3--|
--L-----------3--3-----|---------------------|-----------------------3--|
--L--------------------|---------------------|-----------------------0--|
--L--------------------|------------------3--|--L--------------------0--|
--------------------2--|--L--------L------3--|--L--------------------x--|
--------------------0--|--L--------L------1--|--L------/3s--1--L--3--3--|


                            PM PM
  W                   A chord diagramE MajorE  A chord diagramE MajorE  A chord diagramE MajorE  A chord diagramE MajorE  A chord diagramE MajorE  A chord diagramE MajorE  A chord diagramE MajorE  A chord diagramE MajorE     H        Q.     A chord diagramE MajorE
--L----------------|--L--3--------3--3--------|---------------------|
--L----------------|--L--3--------3--3--------|---------------------|
--L----------------|--L-----------------------|---------------------|
--L----------------|--L-----------------------|------------------3--|
-------------------|-----------------------2--|--L--------L------3--|
--L----------------|--L-----3--3--------0--0--|--L--------L------1--|


  Q.      A chord diagramE MajorE   A chord diagramE MajorE  A chord diagramE MajorE  A chord diagramE MajorE  A chord diagramE MajorE     W                   H        A chord diagramE MajorE  A chord diagramE MajorE  A chord diagramE MajorE  A chord diagramE MajorE
-----------------------3--|--L----------------|--L-----------3--3--0--|
-----------------------3--|--L----------------|--L-----------3--3--0--|
-----------------------0--|--L----------------|--L-----------------1--|
--L-----------------------|-------------------|--------------------2--|
--L-----------------------|-------------------|--------------------2--|
--L------/3s--1--L--3-----|-------------------|--------------------0--|


  H        Q.     A chord diagramE MajorE     Q.      A chord diagramE MajorE   Q    A chord diagramE MajorE  S S    H        Q    A chord diagramE MajorE  A chord diagramE MajorE
--L--------L---------|----------------------2-2-|--2--------L----------|
--L--------L---------|----------------------3-3-|--3--------L-------3--|
--L--------L---------|----------------------2-2-|--2--------L-------0--|
--L--------L------3--|--L-------------------0-0-|--0--------L-------2--|
--L--------L------3--|--L-----------------------|-------------------3--|
--L--------L------1--|--L------/3s--1----L------|----------------------|


  H        Q.     S S    H        Q    A chord diagramE MajorE  A chord diagramE MajorE     A chord diagramE MajorE  A chord diagramE MajorE  A chord diagramE MajorE  A chord diagramE MajorE  H
----------------------|--2--------L----------|-----------------------|
--L--------L------3-3-|--3--------L-------3--|-----3-----3--L--------|
--L--------L------0-0-|--2--------L----0--0--|-----0-----0--L--------|
--L--------L------2-2-|--0--------L----0--2--|-----2-----2--L--------|
--L--------L----------|-------------------3--|-----3-----3--L--------|
----------------------|----------------------|-----------------------|


  H        Q    A chord diagramE MajorE  A chord diagramE MajorE     H        Q.     S S    H        Q    A chord diagramE MajorE  A chord diagramE MajorE
--2--------L----------|------------------2-2-|--2--------L----------|
--3--------L-------3--|--L--------L------3-3-|--3--------L-------3--|
--2--------L----0--0--|--L--------L------2-2-|--2--------L-------0--|
--0--------L----0--2--|--L--------L------0-0-|--0--------L-------2--|
-------------------3--|--L--------L----------|-------------------3--|
----------------------|----------------------|----------------------|


  A chord diagramE MajorE  A chord diagramE MajorE  A chord diagramE MajorE  A chord diagramE MajorE  H           A chord diagramE MajorE  A chord diagramE MajorE  A chord diagramE MajorE  A chord diagramE MajorE  A chord diagramE MajorE  A chord diagramE MajorE  A chord diagramE MajorE  A chord diagramE MajorE     A chord diagramE MajorE  A chord diagramE MajorE  Q     A chord diagramE MajorE  A chord diagramE MajorE  A chord diagramE MajorE  A chord diagramE MajorE
-----------------------|--------3--------3--------|--3-----------------------|
-----3-----3--L--------|-----3--------3--------3--|--------------------------|
-----0-----0--L--------|--------------------------|--------------------------|
-----2-----2--L--------|--3--L--L--2--L--L--------|--------------------------|
-----3-----3--L--------|--------------------3--L--|--L--1--Lb----------------|
-----------------------|--------------------------|--------------3--1--3-----|


  A chord diagramE MajorE  A chord diagramE MajorE  A chord diagramE MajorE  A chord diagramE MajorE  A chord diagramE MajorE  A chord diagramE MajorE  A chord diagramE MajorE  A chord diagramE MajorE     A chord diagramE MajorE  A chord diagramE MajorE  Q    A chord diagramE MajorE  A chord diagramE MajorE  Q       A chord diagramE MajorE  A chord diagramE MajorE  A chord diagramE MajorE  A chord diagramE MajorE  A chord diagramE MajorE  A chord diagramE MajorE  A chord diagramE MajorE  A chord diagramE MajorE
--------3--------3--------|--3-------------3--3----|--------3--------3--------|
-----3--------3--------3--|----------------3--3----|-----3--------3--------3--|
--------------------------|----------------0--0----|--------------------------|
--3--L--L--2--L--L--------|------------------------|--3--L--L--2--L--L--------|
--------------------3--L--|--L--1--L---------------|--------------------3--L--|
--------------------------|-------------3----------|--------------------------|


  A chord diagramE MajorE  A chord diagramE MajorE  Q    A chord diagramE MajorE  A chord diagramE MajorE  A chord diagramE MajorE  A chord diagramE MajorE     A chord diagramE MajorE  A chord diagramE MajorE  A chord diagramE MajorE  A chord diagramE MajorE  A chord diagramE MajorE  A chord diagramE MajorE  Q       A chord diagramE MajorE  Q.      Q    A chord diagramE MajorE  A chord diagramE MajorE
--3--L--L----------------|--------3--------3--L----|--L--L-------L-----------|
-------------------------|-----3--------3-----L----|--L--L-------L-----------|
-------------------------|-------------------------|---------------------5b--|
-------------------------|--3--L--L--2--L--L-------|-------------------------|
--L--1--L----------------|--------------------3----|--L--1~------------------|
-------------3--1--3-----|-------------------------|-------------3-----------|


                                                        \1/
  A chord diagramE MajorE     S S S S S  S S S  S S S S S S    Q     A chord diagramE MajorE  A chord diagramE MajorE  A chord diagramE MajorE  Q.
--------------------------------------|------------------------|
--------------------------------------|------------------------|
--Lpbr--5-3-----5p-3---5p-0-----------|------------------------|
------------5--------5------3-5-3-----|------------------------|
----------------------------------5-3-|--3b----2---------------|
--------------------------------------|-----------3--1--0------|


  H        A chord diagramE MajorE   A chord diagramE MajorE    Q
----------------------------|
--------------18b---Lpbr----|
----------------------------|
----------------------------|
----------------------------|
--L--------L----------------|


   A chord diagramE MajorE    S  S   S  S  S  S   S  S   S  S   S  S  S  S
-----------------------------------------------------|
---Lb--15-18p-15----18-17p-15-----15-18p-15----17-15-|
-----------------17-----------17b-----------17-------|
-----------------------------------------------------|
-----------------------------------------------------|
-----------------------------------------------------|


                      PH
   Q      Q     A chord diagramE MajorE     A chord diagramE MajorE    Q
----------------------------------|
--17b----17~-------15b---Lpb----|
----------------x-----------------|
----------------x-----------------|
----------------------------------|
----------------------------------|


                           |--3--|  |--3--|
   S S  S  S   S  S  S  S  S  S  S  S  S  S  S  E.
-----------------------------------------------------|
--15---13-15p-13-12-13-13-10-12-10----10----10-------|
-----------------------------------12----12----12b---|
-----------------------------------------------------|
-----------------------------------------------------|
-----------------------------------------------------|


  S  S  S  S  S  S  S  S  S  S S  S  S  S  S  S
------------------------------------------------|
----12------------------------------------------|
--L----14-12-14-12----12------------------------|
-------------------14----12-14-L-12----12-14-14-|
------------------------------------14----------|
------------------------------------------------|


  7  7   7   7  7   7   7 7   7  7 7  7 7
  S  S   S   S  S   S   S S   S  S S  S A chord diagramE MajorE   Q     A chord diagramE MajorE   A chord diagramE MajorE
---------------------------------------------------------|
---------------------------------------------------------|
---------------------------------------------------------|
--L-12h-14p-12-10h-12p-10-9h-10p-9-7----7s--9----12--14--|
-------------------------------------10------------------|
---------------------------------------------------------|


   Q     Q      Q.       A chord diagramE MajorE      A chord diagramE MajorE    S   S  A chord diagramE MajorE   A chord diagramE MajorE  Q     A chord diagramE MajorE   A chord diagramE MajorE
----------------------------|-----------------------------------|
--------15-----15-------15--|--15-------------------------------|
--12----14b----14b------14--|--14b--14p-12-14--12--L~----L/-----|
----------------------------|-----------------------------------|
----------------------------|-----------------------------------|
----------------------------|-----------------------------------|


                                      |--3--|
   A chord diagramE MajorE    A chord diagramE MajorE   A chord diagramE MajorE    A chord diagramE MajorE   A chord diagramE MajorE    A chord diagramE MajorE   S    S  S  S  S
----------------------------------------------|
--18---18--18---18--18---18-------------------|
--17b---L--17b---L--17b---L--17br-17-15----15-|
----------------------------------------17----|
----------------------------------------------|
----------------------------------------------|


              |---3--|  |---3--|
   S  A chord diagramE MajorE    S  S   S  S  S   S  S  A chord diagramE MajorE    Q.
------------------------------------------------|
--15------15-18p-15----18p-15----18b---Lpb------|
-----17b------------17--------17----------------|
------------------------------------------------|
------------------------------------------------|
------------------------------------------------|


                                                    W
                |--6--|  |--6--|  |---6--|  |--6--|
   S  S   S  S  S  S  S  S  S  S  S   S  S  S  S  S Q
---------------------------------------------------------|
--15-18p-15----15----------------------------------------|
------------17----18-17-18-17-15-17p-15----17-15-14-L----|
----------------------------------------17---------------|
---------------------------------------------------------|
---------------------------------------------------------|


                |---6--|  |--6--|
   S  S  A chord diagramE MajorE      S  S   S  S  S  S  A chord diagramE MajorE   A chord diagramE MajorE   Q
------------------------------------------------|
------------------------------------------------|
-----12-14pbr--12-14p-12-10-12-10---------------|
--14------------------------------10--10--12----|
------------------------------------------------|
------------------------------------------------|


    A chord diagramE MajorE   A chord diagramE MajorE    A chord diagramE MajorE   A chord diagramE MajorE   S   S  A chord diagramE MajorE   Q         A chord diagramE MajorE   A chord diagramE MajorE    A chord diagramE MajorE    A chord diagramE MajorE    A chord diagramE MajorE     A chord diagramE MajorE   A chord diagramE MajorE  S S
-------------------------------22b----|--22--22b--22b--22b---Lpb---L\-----2-2-|
-----------------x--15s-17-20---------|-----------------------------------3-3-|
-------12--/16------------------------|-----------------------------------2-2-|
--/14---------------------------------|-----------------------------------0-0-|
--------------------------------------|---------------------------------------|
--------------------------------------|---------------------------------------|


  H        Q    A chord diagramE MajorE  A chord diagramE MajorE     H        Q.     S S    H        Q    A chord diagramE MajorE  A chord diagramE MajorE
--2--------L----------|----------------------|--2--------L----------|
--3--------L-------3--|--L--------L------x-x-|--3--------L-------3--|
--2--------L-------0--|--L--------L------x-x-|--2--------L-------0--|
--0--------L-------2--|--L--------L------x-x-|--0--------L-------2--|
----------------3--3--|--L--------L----------|----------------3--3--|
----------------------|----------------------|----------------------|


  A chord diagramE MajorE  A chord diagramE MajorE  A chord diagramE MajorE  A chord diagramE MajorE  H           H        Q    A chord diagramE MajorE  A chord diagramE MajorE     H        Q.     S S
-----------------------|--2--------L----------|------------------2-2-|
-----3-----3--L--------|--3--------L-------3--|--L--------L------3-3-|
-----0-----0--L--------|--2--------L-------0--|--L--------L------2-2-|
-----2-----2--L--------|--0--------L-------2--|--L--------L------0-0-|
-----3-----3--L--------|----------------3--3--|--L--------L----------|
-----------------------|----------------------|----------------------|


  H        Q    A chord diagramE MajorE  A chord diagramE MajorE     A chord diagramE MajorE  A chord diagramE MajorE  A chord diagramE MajorE  A chord diagramE MajorE  H
--2--------L----------|-----------------------|-------|-------|-------|-------|
--3--------L-------3--|-----3-----3--L--------|-------|-------|-------|-------|
--2--------L-------0--|-----0-----0--L--------|-------|-------|-------|-------|
--0--------L-------2--|-----2-----2--L--------|-------|-------|-------|-------|
----------------3--3--|-----3-----3--L--------|-------|-------|-------|-------|
----------------------|-----------------------|-------|-------|-------|-------|


                                  A chord diagramE MajorE  A chord diagramE MajorE  A chord diagramE MajorE  A chord diagramE MajorE  A chord diagramE MajorE  A chord diagramE MajorE  A chord diagramE MajorE  A chord diagramE MajorE
-------|-------|-------|-------|--------3--------3--------|
-------|-------|-------|-------|-----3--------3--------3--|
-------|-------|-------|-------|--------------------------|
-------|-------|-------|-------|--3--L--L--2--L--L--------|
-------|-------|-------|-------|--------------------3--L--|
-------|-------|-------|-------|--------------------------|


  A chord diagramE MajorE  A chord diagramE MajorE  Q     A chord diagramE MajorE   A chord diagramE MajorE  A chord diagramE MajorE  A chord diagramE MajorE     A chord diagramE MajorE  A chord diagramE MajorE  A chord diagramE MajorE  A chord diagramE MajorE  A chord diagramE MajorE  A chord diagramE MajorE  A chord diagramE MajorE  A chord diagramE MajorE     A chord diagramE MajorE  A chord diagramE MajorE  Q    A chord diagramE MajorE  A chord diagramE MajorE  Q
--3------------------------|--------3--------3--------|--3-------------3--3----|
---------------------------|-----3--------3--------3--|----------------3--3----|
---------------------------|--------------------------|----------------0--0----|
---------------------------|--3--L--L--2--L--L--------|------------------------|
--L--1--Lb-----------------|--------------------3--L--|--L--1--L---------------|
--------------3s--1--3-----|--------------------------|-------------3----------|


  A chord diagramE MajorE  A chord diagramE MajorE  A chord diagramE MajorE  A chord diagramE MajorE  A chord diagramE MajorE  A chord diagramE MajorE  A chord diagramE MajorE  A chord diagramE MajorE     A chord diagramE MajorE  A chord diagramE MajorE  Q    A chord diagramE MajorE   A chord diagramE MajorE  A chord diagramE MajorE  A chord diagramE MajorE     A chord diagramE MajorE  A chord diagramE MajorE  A chord diagramE MajorE  A chord diagramE MajorE  A chord diagramE MajorE  A chord diagramE MajorE  Q
--------3--------3--------|--3--L--L-----------------|--------3--------3--L----|
-----3--------3--------3--|--------------------------|-----3--------3-----L----|
--------------------------|--------------------------|-------------------------|
--3--L--L--2--L--L--------|--------------------------|--3--L--L--2--L--L-------|
--------------------3--L--|--L--1--L-----------------|--------------------3----|
--------------------------|-------------3s--1--3-----|-------------------------|


  A chord diagramE MajorE  Q.      Q    A chord diagramE MajorE  A chord diagramE MajorE      A chord diagramE MajorE    A chord diagramE MajorE     A chord diagramE MajorE    A chord diagramE MajorE     A chord diagramE MajorE    A chord diagramE MajorE     A chord diagramE MajorE    A chord diagramE MajorE
--L--L-------L----------|----------------------------------------------|
--L--L-------L----------|--18---18----18---18----18---18----18---18----|
------------------------|--17b--17pb--17b--17pb--17b--17pb--17b--17pb--|
------------------------|----------------------------------------------|
--L--1~-----------x--x--|----------------------------------------------|
-------------3----------|----------------------------------------------|


   A chord diagramE MajorE    A chord diagramE MajorE     A chord diagramE MajorE    A chord diagramE MajorE     A chord diagramE MajorE    A chord diagramE MajorE     A chord diagramE MajorE    S   S
-----------------------------------------------|
--18---18----18---18----18---18----18----------|
--17b--17pb--17b--17pb--17b--17pb--17b--17p-15-|
-----------------------------------------------|
-----------------------------------------------|
-----------------------------------------------|


                                          W
           |---3--|
   E.   S  S   S  S  S   S  A chord diagramE MajorE   S   S  S  E.
----------------------------------------------|
----------------------------------------------|
-------15-17p-15----17p-15------------15------|
--17-------------15--------15--15h-17----17---|
----------------------------------------------|
----------------------------------------------|


  E.  S  E.    S  S   S  S   S  S   S  S   S
--------------15-----15-----15-----15-----15-|
--------18b------18b----18b----18b----18b----|
---------------------------------------------|
--L---x--------------------------------------|
---------------------------------------------|
---------------------------------------------|


   Q.       Q      S   S   S  S  S  S
---------------------------------------|
--18b------18b----15h-18p-15----15-----|
-----------------------------18----18h-|
---------------------------------------|
---------------------------------------|
---------------------------------------|


                                                            \1/
   |------5-----|
   S  S  S   S  S  S. T  Q      A chord diagramE MajorE    Q         H            H
-------------------------------------------|-------------------------|
-----15------------------------------------|-------------------------|
--17----18p-15----17-15--------------------|-------------------------|
---------------17-------17b-----L\--16b----|---Lpbr---------L--------|
-------------------------------------------|-------------------------|
-------------------------------------------|-------------------------|


  Q    Q    Q    Q       A chord diagramE MajorE  A chord diagramE MajorE  A chord diagramE MajorE  A chord diagramE MajorE  A chord diagramE MajorE  A chord diagramE MajorE  A chord diagramE MajorE  A chord diagramE MajorE     A chord diagramE MajorE  A chord diagramE MajorE  Q     A chord diagramE MajorE   A chord diagramE MajorE  A chord diagramE MajorE  A chord diagramE MajorE
----------------------|--------3--------3--------|--3------------------------|
----------------------|-----3--------3--------3--|---------------------------|
----------------------|--------------------------|---------------------------|
--x----x----x----x----|--3--L--L--2--L--L--------|---------------------------|
----------------------|--------------------3--L--|--L--1--Lb-----------------|
----------------------|--------------------------|--------------3s--1--3-----|


  A chord diagramE MajorE  A chord diagramE MajorE  A chord diagramE MajorE  A chord diagramE MajorE  A chord diagramE MajorE  A chord diagramE MajorE  A chord diagramE MajorE  A chord diagramE MajorE     A chord diagramE MajorE  A chord diagramE MajorE  Q    A chord diagramE MajorE  A chord diagramE MajorE  Q       A chord diagramE MajorE  A chord diagramE MajorE  A chord diagramE MajorE  A chord diagramE MajorE  A chord diagramE MajorE  A chord diagramE MajorE  A chord diagramE MajorE  A chord diagramE MajorE
--------3--------3--------|--3-------------3--3----|--------3--------3--------|
-----3--------3--------3--|----------------3--3----|-----3--------3--------3--|
--------------------------|----------------0--0----|--------------------------|
--3--L--L--2--L--L--------|------------------------|--3--L--L--2--L--L--------|
--------------------3--L--|--L--1--L---------------|--------------------3--L--|
--------------------------|-------------3----------|--------------------------|


  A chord diagramE MajorE  A chord diagramE MajorE  Q    A chord diagramE MajorE   A chord diagramE MajorE  A chord diagramE MajorE  A chord diagramE MajorE     A chord diagramE MajorE  A chord diagramE MajorE  A chord diagramE MajorE  Q.     Q       H.           A chord diagramE MajorE  A chord diagramE MajorE
--3--L--L-----------------|--------3--L------L----|--L------------L-----|
--------------------------|-----3-----L------L----|--L------------L-----|
--------------------------|-----------------------|---------------------|
--------------------------|--3--L--L--2-----------|---------------------|
--L--1--L-----------------|------------------3----|--L------------L-----|
-------------3s--1--3-----|-----------------------|---------------------|


          H        H           W                   A chord diagramE MajorE  A chord diagramE MajorE  Q    H
-------|-----------3--------|--L----------------|--3-------------------||
-------|-----------3--------|--L----------------|--3-------------------||
-------|-----------0--------|--L----------------|--0-------------------||
-------|--------------------|-------------------|----------------------||
-------|--------------------|-------------------|----------------------||
-------|-----------3--------|--L----------------|--3-------------------||



Duration 🏷Legend
---------------
W - whole
H - half
Q - quarter
A chord diagramE MajorE - 8th
S - 16th
T - 32nd
X - 64th
. - note dotted
|-n-|  - n-tuplets


Tablature 🏷Legend
----------------
L - tied note
x - dead note
g - grace note
(n) - ghost note
> - accentuded note
NH - natural harmonic
AH - artificial harmonic
SH - semi harmonic
PH - pitch harmonic
h - hammer on
p - pull off
b - bend
br - bendRelease
pb - preBend
pbr - preBendRelease
brb - bendReleaseBend
S - shift slide
s - legato slide
/ -  slide into from below or out of upwards
\ -  slide into from above or out of downwards
~ - vibrato
W - wide vibrato
tr - trill
TP - tremolo picking
T - tapping

Almost there ...

Sign in to get your own page with links to favourite songs and more. You are just one click away...

Login with Facebook Login with Google