Log in

One click and you are in

Login with Facebook Login with Google

Why sign up and log in

Guitar Tabs Explorer
Journey tabs for It could have been you

Guitar tabs with lyrics

It Could Have Been You - Journey
Raised On Radio (1986)

Brief statement: I tabbed this song out by ear so If anyone views this song, please be
and give your opinion on it with a rate.  Really great song...love the meaning to it!!
and God Bless!

(Intro)
e |---------------------------------------------------------------|
b |---------------0h3vvv-----------------------------------0h3vvv-|
g |-4-4p2-4-2-4-2--------4--4p2-4-2------------4p2-4-2-4-2--------|
d |---------------------------------4v--2v--0---------------------|
a |---------------------------------------------------------------|
A chord diagramE MajorE |---------------------------------------------------------------|

(Intro cont.)
e |--------------------|
b |--------------------|
g |4--4p2-4-2----------| x2
d |------------4v--2v--|
a |--------------------|
A chord diagramE MajorE |--------------------|


(Verse)
e |------------------------------------------|
b |-------------0h3vvv-----------------------|
g |4p2-4-2-4-2----------4--4p2-4-2-----------| x4
d |--------------------------------4v--2v--0-|
a |------------------------------------------|
A chord diagramE MajorE |------------------------------------------|

(Fill after 4th time above)
e |-----------2----|
b |-----------2--2-|
g |4-4p2-4-2--2--2-|
d |-----------4--2-|
a |-----------4--0-|
A chord diagramE MajorE |-----------2----|
             A chord diagramF# minorF#m A chord diagramA augmentedA

(Chorus)
e |2~~~-----------------------------2-----|
b |3~~~-----------------5~---3~-----3---2-|
g |2~~~-----------------6~---2~-----4---2-|
d |0~~~-----------------7~---4~-----4---2-|
a |---------------------------------2---0-|
A chord diagramE MajorE |---------------------------------2-----|
   A chord diagramD MajorD                               BM   A chord diagramA augmentedA
(Second time: DON"T PLAY BM AND A chord diagramA augmentedA AT THE END!)

(Fill during Chorus)
e |---------------|
b |3har-2har------|
g |----------2har-|
d |---------------|
a |---------------|
A chord diagramE MajorE |---------------|

(Verse#2)
e |------------------------------------------|
b |--------------0h3vvv----------------------|
g |4-4p2-4-2-4-2--------4--4p2-4-2-----------| x 1 then play (Verse) x 4
d |--------------------------------4v--2v--0-|
a |------------------------------------------|
A chord diagramE MajorE |------------------------------------------|


(Fill after 4th time above)
e |-----------2----|
b |-----------2--2-|
g |4-4p2-4-2--2--2-|
d |-----------4--2-|
a |-----------4--0-|
A chord diagramE MajorE |-----------2----|
             A chord diagramF# minorF#m A chord diagramA augmentedA

(Chorus) x 2
(Second time: DON"T PLAY BM AND A chord diagramA augmentedA AT THE END!)

(Solo)
e |----------10---------------12------------------10---------|
b |-----12h14------------15p12------------15-12/14-----------|
g |--/14--------12-12vv----------14-14vv-------------12-12vv-|
d |----------------------------------------------------------|
a |----------------------------------------------------------|
A chord diagramE MajorE |----------------------------------------------------------|

e |---------------------14-15p14--------------17-17-----15-14----|
b |15p12-15bv---15-15h17-----------17-17-15-17---------x------17-|
g |---------------------------------------------------x----------|
d |--------------------------------------------------x-----------|
a |--------------------------------------------------------------|
A chord diagramE MajorE |--------------------------------------------------------------|
                                                  rake-|

e |14-15p14----------------------------------|
b |----------17-15-14bv----------------------|
g |------------------------------------------|
d |------------------------9-7-5v------------|
a |--------------------------------7-7-5-4v--|
A chord diagramE MajorE |------------------------------------------|


(Chorus Fill)
e |---------------------------------|
b |---------------0h3vvv------------|
g |-4-4p2-4-2-4-2--------4--4p2-4-2-|
d |---------------------------------|
a |---------------------------------|
A chord diagramE MajorE |---------------------------------|

(Verse during Chorus) x 2

(Ride-out with Verse) x  ? (Until you are satisfied)

🏷Legend:
h=Hammer on
p=Pull off
v or vv=Vibrato
/=slide
har=Harmonic(Artificial of Natural)

****The Chorus might not have a guitar part.  It might be played on Keyboard, as well as
ⓘ Guitar tab for 'It Could Have Been You' by Journey, a hard rock band formed in 1973 from San Francisco, USA. Journey is known for their rousing rock/pop music.

Other versions of It Could Have Been You

It could have been youChords

Almost there ...

Sign in to get your own page with links to favourite songs and more. You are just one click away...

Login with Facebook Login with Google