Log in

One click and you are in

Login with Facebook Login with Google

Why sign up and log in

Guitar Tabs Explorer
Journey bass tabs for Ill be alright without you

I'll Be Alright Without You bass tab by Journey

Journey bass tabs for Ill be alright without you

Bass tabs with lyrics

Tuning: D Tuning (D G C F)

LEAD-IN:

F |---------------------------------|
C |---------------------------------|
G |---------------------------------|
D |-------------------------4---r---|
1 & 2 & 3 & 4 &


INTRO:

F |---------------------------------|---------------------------------|
C |---------------------------------|---------------------------------|
G |-0---0---0---0---0---0---0-------|---------2---4---r---4-----------|
D |-----------------------------2---|-4---4-------------------4---2---|
1 & 2 & 3 & 4 & 1 & 2 & 3 & 4 &

F |---------------------------------|---------------------------------|
C |---------------------------------|---------------------------------|
G |---------------------------------|---------------------------------|
D |(2)--2---2---2---2---2---2---2---|-2---2---2---2---2---2---4---r---|
1 & 2 & 3 & 4 & 1 & 2 & 3 & 4 &

F |---------------------------------|---------------------------------|
C |---------------------------------|---------------------------------|
G |-0---0---0---0---0---0---0-------|---------2---4-------4-----------|
D |-----------------------------2---|-4---4-------------------4---2---|
1 & 2 & 3 & 4 & 1 & 2 & 3 & 4 &

F |---------------------------------|---------------------------------|
C |---------------------------------|---------------------------------|
G |---------------------------------|---------------------------------|
D |(2)--2---2---2---2---2---2---2---|-2---2---2---2---2---2---2---4---|
1 & 2 & 3 & 4 & 1 & 2 & 3 & 4 &


VERSE 1:

F |---------------------------------|---------------------------------|
C |---------------------------------|---------------------------------|
G |---------------------------------|---------------------------------|
D |-5---5---5---5---5---5---5---5---|-5---5---5---5---5---4---5---6---|
1 & 2 & 3 & 4 & 1 & 2 & 3 & 4 &

F |---------------------------------|---------------------------------|
C |---------------------------------|---------------------------------|
G |---------------------------------|---------------------------------|
D |-7---7---7---7---7---7---7---7---|-7---7---7---7---7---r---4---r---|
1 & 2 & 3 & 4 & 1 & 2 & 3 & 4 &

F |---------------------------------|---------------------------------|
C |---------------------------------|---------------------------------|
G |---------------------------------|---------------------------------|
D |-5---5---5---5---5---5---5---5---|-5---5---5---5---5---4---5---6---|
1 & 2 & 3 & 4 & 1 & 2 & 3 & 4 &

F |---------------------------------|---------------------------------|
C |---------------------------------|---------------------------------|
G |---------------------------------|---------------------------------|
D |-7---7---7---7---7---7---7---7---|-7---7---7---7---7---7-\-2---4---|
1 & 2 & 3 & 4 & 1 & 2 & 3 & 4 &

F |---------------------------------|---------------------------------|
C |---------------------------------|---------------------------------|
G |---------------------------------|---------------------------------|
D |-5---5---5---5---5---5---5---5---|-5---5---5---5---5---4---5---6---|
1 & 2 & 3 & 4 & 1 & 2 & 3 & 4 &

F |---------------------------------|---------------------------------|
C |---------------------------------|---------------------------------|
G |---------------------------------|---------------------------------|
D |-7---7---7---7---7---7---7---7---|-7---7---7---5---7-r-7---5---4---|
1 & 2 & 3 & 4 & 1 & 2 & 3 & 4 &


PRE-CHORUS:

F |---------------------------------|---------------------------------|
C |---------------------------------|---------------------------------|
G |-----------------------------3---|-4---4---4---4---4---4-----------|
D |-2---2---2---2---2-r-2---2-------|-------------------------2---3---|
1 & 2 & 3 & 4 & 1 & 2 & 3 & 4 &

F |---------------------------------|---------------------------------|
C |---------------------------------|---------------------------------|
G |---------------------------------|---------------------------------|
D |-4---4---4---4---4---4---2---4---|-5-r-5---5-r-5---5-r-5---4---3---|
1 & 2 & 3 & 4 & 1 & 2 & 3 & 4 &

F |---------------------------------|---------------------------------|
C |---------------------------------|---------------------------------|
G |-----------------------------3---|-4---4---4---4---4---4-----------|
D |-2---2---2---2---2---2---2-------|-------------------------2---3---|
1 & 2 & 3 & 4 & 1 & 2 & 3 & 4 &

F |---------------------------------|---------------------------------|
C |---------------------------------|---------------------------------|
G |---------------------------------|---------------------------------|
D |-4-r-4---4-r-4---4-r-4---5---6---|-7-r-7---7---7---7---7---7---7---|
1 & 2 & 3 & 4 & 1 & 2 & 3 & 4 &


CHORUS 1 (x2):

F |---------------------------------|---------------------------------|
C |---------------------------------|-----------------------------2---|
G |---------------------------------|---------------------2---4-------|
D |-0---0---0---0---0---0---0---0---|-0---0---0---0---0---------------|
1 & 2 & 3 & 4 & 1 & 2 & 3 & 4 &
_________________________________ _________________________________
/1 /2
F |---------------------------------|---------------------------------|---------------------------------|
C |---------------------------------|---------------------------------|---------------------------------|
G |-4---4---4---4---4---4---4---4---|-4---4---4---4---4---2---2-------|-4---4---4---4---4---4---2-------|
D |---------------------------------|---------------------------------|---------------------------------|
1 & 2 & 3 & 4 & 1 & 2 & 3 & 4 & 1 & 2 & 3 & 4 &


VERSE 2 (x2):

F |---------------------------------|---------------------------------|
C |---------------------------------|---------------------------------|
G |---------------------------------|---------------------------------|
D |-5---5---5---5---5---5---5---5---|-5---5---5---5---5---4---5---6---|
1 & 2 & 3 & 4 & 1 & 2 & 3 & 4 &
_________________________________ _________________________________
/1 /2
F |---------------------------------|---------------------------------|---------------------------------|
C |---------------------------------|---------------------------------|---------------------------------|
G |---------------------------------|---------------------------------|---------------------------------|
D |-7---7---7---7---7---7---7---7---|-7---7---7---7---7---r---4---r---|-7---7---7---5-6-7-r-7---5---4---|
1 & 2 & 3 & 4 & 1 & 2 & 3 & 4 & 1 & 2 & 3 & 4 &


PRE-CHORUS:

F |---------------------------------|---------------------------------|
C |---------------------------------|---------------------------------|
G |-----------------------------3---|-4---4---4---4---4---4-----------|
D |-2-r-2---2-r-2---2-r-2---2-------|-------------------------2---3---|
1 & 2 & 3 & 4 & 1 & 2 & 3 & 4 &

F |---------------------------------|---------------------------------|
C |---------------------------------|---------------------------------|
G |---------------------------------|---------------------------------|
D |-4-r-4---4-r-4---4-r-4---3---4---|-5---5---5---5---5---5---4---3---|
1 & 2 & 3 & 4 & 1 & 2 & 3 & 4 &

F |---------------------------------|---------------------------------|
C |---------------------------------|---------------------------------|
G |-----------------------------3---|-4-r-4---4---4---4-r-4-----------|
D |-2---2---2---2---2---2---2-------|-------------------------2---3---|
1 & 2 & 3 & 4 & 1 & 2 & 3 & 4 &

F |---------------------------------|---------------------------------|
C |---------------------------------|---------------------------------|
G |---------------------------------|---------------------------------|
D |-4-r-4---4-r-4---4-r-4---5---6---|-7-r-7---7-r-7---7-r-7---7---7---|
1 & 2 & 3 & 4 & 1 & 2 & 3 & 4 &


CHORUS 2:

F |---------------------------------|---------------------------------|
C |---------------------------------|---------------------------------|
G |---------------------------------|-------------------------2-------|
D |-0---0---0---0---0---0---0---0---|-0---0---0---0---0---2-------2-r-|
1 & 2 & 3 & 4 & 1 & 2 & 3 & 4 &

F |---------------------------------|---------------------------------|
C |---------------------------------|---------------------------------|
G |-4---4---4---4---4---4---4---4---|-4---4---4---4---4---2---2-------|
D |---------------------------------|---------------------------------|
1 & 2 & 3 & 4 & 1 & 2 & 3 & 4 &

F |---------------------------------|---------------------------------|
C |---------------------------------|-----------------------------2---|
G |---------------------------------|---------------------2---4-------|
D |-0---0---0---0---0---0---0---0---|-0---0---0---0---0---------------|
1 & 2 & 3 & 4 & 1 & 2 & 3 & 4 &

F |---------------------------------|---------------------------------|
C |---------------------------------|---------------------------------|
G |-4---4---4---4---4---4---4---4---|-4---4---4---4---4---4---2-------|
D |---------------------------------|-----------------------------0-2-|
1 & 2 & 3 & 4 & 1 & 2 & 3 & 4 &


BRIDGE:

F |---------------------------------|---------------------------------|
C |---------------------------------|---------------------------------|
G |-----------------------------0---|-0---0---0---0---0---0---0---4---|
D |-4---4---4---4---4---4---4-------|---------------------------------|
1 & 2 & 3 & 4 & 1 & 2 & 3 & 4 &

F |---------------------------------|---------------------------------|
C |---------------------------------|---------------------------------|
G |-4---4---4---4---4---4---4---2---|-2---2---2---2---2---2---2-------|
D |---------------------------------|-----------------------------0-2-|
1 & 2 & 3 & 4 & 1 & 2 & 3 & 4 &

F |---------------------------------|---------------------------------|
C |---------------------------------|---------------------------------|
G |-----------------------------0---|-0---0---0---0---0---0---0---2---|
D |-4---4---4---4---4---4---4-------|---------------------------------|
1 & 2 & 3 & 4 & 1 & 2 & 3 & 4 &

F |---------------------------------|---------------------------------|---------------------------------|
C |---------------------------------|---------------------------------|---------------------------------|
G |-4---4---4---4---4---4---4---2---|-2---2---2---2---2---2---2---2---|-2---------------------------r---|
D |---------------------------------|---------------------------------|---------------------------------|
1 & 2 & 3 & 4 & 1 & 2 & 3 & 4 & 1 & 2 & 3 & 4 &


CHORUS 3 (x2):

F |---------------------------------|---------------------------------|
C |---------------------------------|-----------------------------2---|
G |---------------------------------|---------------------2---4-------|
D |-0---0---0---0---0---0---0---0---|-0---0---0---0---0---------------|
1 & 2 & 3 & 4 & 1 & 2 & 3 & 4 &
_________________________________ _________________________________
/1 /2
F |---------------------------------|---------------------------------|---------------------------------|
C |---------------------------------|---------------------------------|---------------------------------|
G |-4---4---4---4---4---4---4---4---|-4---4---4---4---4-r-2---2-------|-4---4---4---4---4---4---2---2---|
D |---------------------------------|---------------------------------|---------------------------------|
1 & 2 & 3 & 4 & 1 & 2 & 3 & 4 & 1 & 2 & 3 & 4 &


INTERLUDE, Part 1:

F |---------------------------------|---------------------------------|
C |---------------------------------|---------------------------------|
G |-0---0---0---0---0---0---0---0---|-0---0---0---0---4---------------|
D |---------------------------------|---------------------4---3---2---|
1 & 2 & 3 & 4 & 1 & 2 & 3 & 4 &

F |---------------------------------|---------------------------------|
C |---------------------------------|---------------------------------|
G |---------------------------------|-----------------------------0---|
D |(2)--2---2---2---2---2---2---2---|-2---2---2---2---2---2---4-------|
1 & 2 & 3 & 4 & 1 & 2 & 3 & 4 &

F |---------------------------------|---------------------------------|
C |---------------------------------|---------------------------------|
G |-0---0---0---0---0---0-r---------|-----2---3---4-------------------|
D |-------------------------2---3---|-4-------------------4---3---2---|
1 & 2 & 3 & 4 & 1 & 2 & 3 & 4 &

F |---------------------------------|---------------------------------|
C |---------------------------------|---------------------------------|
G |---------------------------------|---------------------------------|
D |(2)--2---2---2---2---2---2-r-2---|-2-r-2---2-r-2---2-r-2---4---r---|
1 & 2 & 3 & 4 & 1 & 2 & 3 & 4 &

(Part 2):

F |---------------------------------|---------------------------------|
C |---------------------------------|---------------------------------|
G |-0---0---0---0---0---0-----------|-----6---5---4-------------------|
D |-------------------------2---3---|-4-----------------0-4---3---2---|
1 & 2 & 3 & 4 & 1 & 2 & 3 & 4 &

F |---------------------------------|---------------------------------|
C |---------------------------------|---------------------------------|
G |---------------------------------|-----------------------------0---|
D |(2)--2---2---2---2---2---2---2---|-2-r-2---2-r-2---2-r-2---4-------|
1 & 2 & 3 & 4 & 1 & 2 & 3 & 4 &

F |---------------------------------|---------------------------------|
C |---------------------------------|---------------------------------|
G |-0---0---0-r-0---0-r-0-----------|-----2---3---4-------------------|
D |-------------------------2---3---|-4-----------------0-4---3---2---|
1 & 2 & 3 & 4 & 1 & 2 & 3 & 4 &

F |---------------------------------|---------------------------------|
C |---------------------------------|-6-6-5-5-4-----------------------|
G |---------------------------------|-----------2-4---------------0---|
D |(2)--2---2-r-2---2-r-2---2-r-2-/-|---------------0-2-r-2---4-------|
1 & 2 & 3 & 4 & 1 & 2 & 3 & 4 &

(Part 3):

F |---------------------------------|---------------------------------|
C |---------------------------------|---------------------------------|
G |-0---0---0-r-0---0-r-0-----------|-----2---3---4-------------------|
D |-------------------------2---3---|-4-----------------0-4---3---2---|
1 & 2 & 3 & 4 & 1 & 2 & 3 & 4 &

F |---------------------------------|---------------------------------|
C |-------------------------4-----0-|-6-----0-7-----0-6-0-4-0---------|
G |---------------------------------|-----------------------------0---|
D |-2-r-2---2-r-2---2-r-2-----------|-------------------------4-------|
1 & 2 & 3 & 4 & 1 & 2 & 3 & 4 &

F |---------------------------------|---------------------------------|
C |---------------------------------|---------------------------------|
G |-0---0---0-r-0---0-r-0-----------|-----2---3---4-------------------|
D |-------------------------2---3---|-4-----------------0-4---3---2---|
1 & 2 & 3 & 4 & 1 & 2 & 3 & 4 &

F |---------------------------------|-7-6-4---------------------------|
C |---------------------------------|-------0-7-6-4-------------------|
G |---------------------------------|---------------0-5p0-4p0---------|
D |-2-r-2---2-r-2---2-r-2---2-r-2-/-|-------------------------4---r---|
1 & 2 & 3 & 4 & 1 & 2 & 3 & 4 &


OUTRO:

F |---------------------------------|---------------------------------|
C |---------------------------------|---------------------6p0-5p0-4---|
G |-0-r-0---0-r-0---0-r-0-----------|-----2---3---4-------------------|
D |-------------------------2---3---|-4-------------------------------|
1 & 2 & 3 & 4 & 1 & 2 & 3 & 4 &

F |---------------------------------|---------------------------------|
C |(4)4-r---4-------4-------6-------|-7-r-7-6-7-6-r---4---------------|
G |-------4-------4-------4-------4-|---------------4-----4-------0---|
D |---------------------------------|-------------------------4-------|
1 & 2 & 3 & 4 & 1 & 2 & 3 & 4 &

F |---------------------------------|---------------------------------|
C |---------------------------------|---------------------------------|
G |(0)--0---0-r-0---0-r-0-----------|-----2---3---4-------------------|
D |-------------------------2--3----|-4-----------------0-4---3---2---|
1 & 2 & 3 & 4 & 1 & 2 & 3 & 4 &

F |---------------------------------|---------------------------------|
C |---------------------------------|---------------------------------|
G |---------------------------------|---------------------------------|
D |-2-r-2---2-r-2---2-r-2---2-r-2---|-2-r-2---2-r-2---2-r-2---4---r---|
1 & 2 & 3 & 4 & 1 & 2 & 3 & 4 &

vf
F |---------------------------------|---------------------------------|
C |---------------------------------|-------------------0-6-0-5---4---|
G |-0-r-0---0-r-0---0-r-0-----------|-----2---3---4-------------------|
D |-------------------------2---3---|-4-------------------------------|
1 & 2 & 3 & 4 & 1 & 2 & 3 & 4 &

F |---------------------------------|---------------------------------|
C |(4)----0-6r6---0-7r7---0-8r8---0-|-9-0-7-0-6-0-4-0-----------------|
G |---------------------------------|-----------------6-0-4-0-----0---|
D |---------------------------------|-------------------------4-------|
1 & 2 & 3 & 4 & 1 & 2 & 3 & 4 &
vo
F |---------------------------------|---------------------------------|---------------------------------|
C |---------------------------------|---------------------------------|---------------------------------|
G |-0-r-0---0-r-0---0-r-0-----------|-----2---3---4-------------------|---------------------------------|
D |-------------------------2---3---|-4-------------------4---3---2---|-2-r-2---2-r-2---2-r-2---2-r-2---|
1 & 2 & 3 & 4 & 1 & 2 & 3 & 4 & 1 & 2 & 3 & 4 &

🏷Legend:
r = rest
()= sustained note
\ = shift slide down
p = pull off
vf = volume fade (appears above bar)
vo = volume out (appears above bar)

Almost there ...

Sign in to get your own page with links to favourite songs and more. You are just one click away...

Login with Facebook Login with Google