Log in

One click and you are in

Login with Facebook Login with Google

Why sign up and log in

Guitar Tabs Explorer
Journey tabs for Faithfully

Guitar tabs with lyrics

Song Title:Faithfully
Album:atest Hits
Tempo:64
Transcribed By;Daniel Kinder
Last edit:July 8, 2004
Parts:Verses, Chorus, Chorus Outra, Solo, Part Order & Chord Explanation

Tuning:Standard Tuning - EBGDAe
Notes:The solo is correct, to get the timing and all of the     bends/pull
You'll have to listen to the song.
Verse 1

	Highway [A chord diagramD MajorD]run [A chord diagramDadd9Dadd9] [A chord diagramDsus4Dsus4] [A chord diagramD MajorD]
       Into the [A chord diagramB minorBm]midnight sun
       [A chord diagramG+G]Wheels go round and round you're on my [A chord diagramD MajorD]mind
       Restless [A chord diagramD MajorD]hearts [A chord diagramDadd9Dadd9] [A chord diagramDsus4Dsus4] [A chord diagramD MajorD]
       Sleep [A chord diagramB minorBm]alone through the night
       Se[A chord diagramG+G]nding all my love
       Along the [A chord diagramD MajorD]wi[A chord diagramA augmentedA]re

Chorus

       They [A chord diagramG+G]say that the road ain't no [A chord diagramB minorBm]
       place to start a [A chord diagramD MajorD]family [A chord diagramDsus4Dsus4][A chord diagramD MajorD]
       Right[A chord diagramG+G] down the [A chord diagramB minorBm] line its been you and [A chord diagramD MajorD]me
       And [A chord diagramG+G]loving a music man  ain't [A chord diagramB minorBm] always what its supposed to [A chord diagramD MajorD]be
       Oh [A chord diagramA augmentedA] girl [A chord diagramA augmentedA ]stand by [A chord diagramA augmentedA]me
       I'm [A chord diagramE minorEm]forever [A chord diagramG+G]yours  [A chord diagramD MajorD]faithfully

 Outra Chorus

e||--------7----2----0------------0--2---|
A chord diagramBB||--------------------------4-----------|
A chord diagramG+G||--------------------------------------|
A chord diagramD MajorD||--------------------------------------|
A chord diagramA augmentedA||--------------------------------------|
A chord diagramE MajorE||--------------------------------------|

e||--------7----2----0------------0--2---|
A chord diagramBB||--------------------------4-----------|
A chord diagramG+G||--------------------------------------|
A chord diagramD MajorD||--------------------------------------|
A chord diagramA augmentedA||--------------------------------------|
A chord diagramE MajorE||--------------------------------------|

e||--------7----2----0------------0--2---7---0-|
A chord diagramBB||--------------------------4-----------------|
A chord diagramG+G||--------------------------------------------|
A chord diagramD MajorD||--------------------------------------------|
A chord diagramA augmentedA||--------------------------------------------|
A chord diagramE MajorE||--------------------------------------------|

Verse 2

       Circus [A chord diagramD MajorD]life [A chord diagramDadd9Dadd9] [A chord diagramDsus4Dsus4] [A chord diagramD MajorD]
       Under the [A chord diagramB minorBm]bigtop world
       [A chord diagramG+G]We all need the clowns to make us [A chord diagramD MajorD]smile
       Through space and [A chord diagramD MajorD]time [A chord diagramDadd9Dadd9] [A chord diagramDsus4Dsus4] [A chord diagramD MajorD]
       Always [A chord diagramB minorBm]another show
       Wo[A chord diagramG+G]ndering where I am
       Lost without[A chord diagramD MajorD]yo[A chord diagramA augmentedA]u

Chorus 2

       Being[A chord diagramG+G]apart aint easy [A chord diagramB minorBm]
       on this[A chord diagramD MajorD]love affair [A chord diagramDsus4Dsus4] [A chord diagramD MajorD]
       Two[A chord diagramG+G] stranger learn[A chord diagramB minorBm] to fall in love[A chord diagramD MajorD]again
       I get the [A chord diagramG+G]joy of redic [A chord diagramB minorBm]overing [A chord diagramD MajorD] you
       Oh [A chord diagramA augmentedA] girl [A chord diagramA augmentedA ]stand by [A chord diagramA augmentedA]me
       I'm [A chord diagramE minorEm]forever [A chord diagramG+G]yours  [A chord diagramD MajorD]faithfully


Solo

|-11----9------------9--7-----11---9---------9--7---11----9---------9--7--|
|-------------16-----------------------16--------------------16-----------|
|-------------------------------------------------------------------------|
|-------------------------------------------------------------------------|
|-------------------------------------------------------------------------|
|-------------------------------------------------------------------------|

|---16--16----18--19--19--19----18--------14----14---12--11---12---12|
|-------------------------------------21-----------------------------|
|--------------------------------------------------------------------|
|--------------------------------------------------------------------|
|--------------------------------------------------------------------|
|--------------------------------------------------------------------|

|-----14----12--11-----12----12-----------12--------9----11---|
|----------------------------------------------16-------------|
|-------------------------------------------------------------|
|-------------------------------------------------------------|
|-------------------------------------------------------------|
|-------------------------------------------------------------|

|-----12---11-------12--11---9-----7---6-4-----7---6--------------------|
|-------------14---------------12----------7-------------7--4----4------|
|----------------16---------------------------------------6----------4--|
|-------------------------------------------------------------11--------|
|-----------------------------------------------------------------------|
|-----------------------------------------------------------------------|

|----------2-----7---10-9------10-9---10-9------10-9-------|
|-------4------------------12--------12------12------12----|
|----------------------------------------------------------|
|----11----------------------------------------------------|
|----------------------------------------------------------|
|----------------------------------------------------------|

|--14---19---14----18----14----19---14-----18--|
|----------------------------------------------|
|----------------------------------------------|
|----------------------------------------------|
|----------------------------------------------|
|----------------------------------------------|

|--14---19---14----18----14----19---14-----18--|
|----------------------------------------------|
|----------------------------------------------|
|----------------------------------------------|
|----------------------------------------------|
|----------------------------------------------|


|--14---19---14----18----14----19---14-----18--|
|----------------------------------------------|
|----------------------------------------------|
|----------------------------------------------|
|----------------------------------------------|
|----------------------------------------------|


|--14----19--14-----18---14-----19-------21----19---|
|------------------------------------19-------------|
|---------------------------------------------------|
|---------------------------------------------------|
|---------------------------------------------------|
|---------------------------------------------------|

|-----16----19----16----19-----------19--|
|----------------------------21----------|
|----------------------------------------|
|----------------------------------------|
|----------------------------------------|
|----------------------------------------|

|--16-19-------16----14-----11---9------11-----------11-----9--|
|---------19-------------14---------12------14-----------------|
|-----------------------------------------------16-------------|
|--------------------------------------------------------------|
|--------------------------------------------------------------|
|--------------------------------------------------------------|

|------12---------9---7------4---||
|---16-------16------------------||
|--------------------------------||
|--------------------------------||
|--------------------------------||
|--------------------------------||

End

Part Order:  Verse - Chorus - Outra Chorus - Verse - Chorus - Outra Chorus - Solo

Other versions of Faithfully

FaithfullyChords
Faithfully (Ver. 2)Chords
Faithfully acousticChords
Faithfully (Ver. 2)Tabs
Faithfully acousticTabs

Almost there ...

Sign in to get your own page with links to favourite songs and more. You are just one click away...

Login with Facebook Login with Google