Log in

One click and you are in

Login with Facebook Login with Google

Why sign up and log in

Guitar Tabs Explorer
Journey bass tabs for Dont stop believing

Bass tabs

Tabbed by: FER MADRID
 STANDARD TUNING

 INTRO
G|-----------------|-----------------|----------------|-----------------|
D|-----------------|-----------------|----------------|-----------------|
A|---------------2-|-----------4-6-4-|----------4-7---|-----------6-7---|
E|-0---------2-4---|-----------------|--------------5-|---------------0-|
  1  2  3  4   1  2  3  4  1  2  3  4   1  2  3  4

G|-----------------|-----------------|----------------|---------------|
D|-----------------|-----------------|----------6-----|---------------|
A|---------------2-|-----------4-6---|----------------|-----------6-7-|
E|-----------2-4---|---------------4-|------------4-5-|---------------|
  1  2  3  4   1  2  3  4  1  2  3  4   1  2  3  4

 1st VERSE
G|------------------|----------------|-----------------|---------------|
D|*-----------------|----------------|-----------------|---------------|
A|*---------------2-|-----------4-6--|-4---------4-7---|-----------6-7-|
E|--0-----------4---|----------------|---------------5-|---------------|
  1  2  3  4   1  2  3  4  1  2  3  4   1  2  3  4
                            ________________
                            | 1.
G|-----------------|----------------|-----------------|----------------|
D|-----------------|----------------|-----------6-----|---------------*|
A|---------------2-|-----------4-6--|-----------------|-----------6-7-*|
E|-0-----------4---|----------------|-4-----------4-5-|----------------|
  1  2  3  4   1  2  3  4  1  2  3  4   1  2  3  4
 _________________
 | 2.
G|-----------------|
D|-----------------|
A|-----------6-7---|
E|---------------0-|
  1  2  3  4

G|-----------------|-----------------|----------------|-----------------|
D|-----------------|-----------------|----------------|-----------------|
A|---------------2-|-----------4-6-4-|----------4-7---|-----------6-7---|
E|-----------2-4---|-----------------|--------------5-|---------------0-|
  1  2  3  4   1  2  3  4  1  2  3  4   1  2  3  4

G|-----------------|-----------------|----------------|-----------------|
D|-----------------|-----------------|----------6-----|-----------------|
A|---------------2-|-----------4-6---|----------------|-----------------|
E|-----------2-4---|---------------4-|------------4-5-|-------------0-0-|
  1  2  3  4   1  2  3  4  1  2  3  4   1  2  3  4

 2nd VERSE
G|-----------------|----------------|-----------------|---------------|
D|-----------------|----------------|-----------------|---------------|
A|---------------2-|-----------4-6--|-4---------4-7---|-----------6-7-|
E|-------------4---|----------------|---------------5-|---------------|
  1  2  3  4   1  2  3  4  1  2  3  4   1  2  3  4

G|-----------------|----------------|-----------------|-----------------|
D|-----------------|----------------|-----------------|-----------------|
A|---------------2-|-----------4-6--|-----------------|-0-0-0-0-0-0-0-0-|
E|-0-----------4---|----------------|-4-----4-4-4-4-4-|-----------------|
  1  2  3  4   1  2  3  4  1  2  3  4   1  2  3  4

 1st CHORUS
G|-----------------|-------2---1-----|-----------------|-----------------|
D|-----------------|-------------2---|-----------------|---2p1-1-2p1-1-2-|
A|-0-0-0-0-0-0-0-0-|-0-0-0---------2-|-----------------|-----------------|
E|-----------------|-----------------|-0-0-0-0-0-0-0-0-|-0---------------|
  1  2  3  4   1  2  3  4   1  2  3  4   1  2  3  4

G|-----------------|-----1---2-1-----|-----------------|-----------------|
D|-----------------|-------------2---|-----------------|---2p1-1-2p1-1-2-|
A|-0-0-0-0-0-0-0-0-|-0-0-----------2-|-----------------|-----------------|
E|-----------------|-----------------|-0-0-0-0-0-0-0-0-|-0---------------|
  1  2  3  4   1  2  3  4   1  2  3  4   1  2  3  4

G|-----------------|---2p1-1-2p1-1-2-|-----------------|-----------------|
D|-----------------|-----------------|-----------------|---2p1-1-2p1-1-2-|
A|-0-0-0-0-0-0-0-0-|-0---------------|-----------------|-----------------|
E|-----------------|-----------------|-0-0-0-0-0-0-0-0-|-0---------------|
  1  2  3  4   1  2  3  4   1  2  3  4   1  2  3  4

G|-----------------|-----1---2-1-----|----------------|----------------|
D|-----------------|-------------2---|----------------|-----2----------|
A|-0-0-0-0-0-0-0-0-|-0-0-----------0-|-2--------------|-2-----0--------|
E|-----------------|-----------------|-------0--------|----------------|
  1  2  3  4   1  2  3  4   1  2  3  4  1  2  3  4

 3rd VERSE
G|------------------|-----------------|-----------------|------------------|
D|*-----------------|-----------------|-----------------|-----------------*|
A|*---------------2-|-2-2-2-2-2-4-6-4-|-4-4-4-4-4-4-7---|-----------6-7---*|
E|--0-0-0-0-0-2-4---|-----------------|---------------5-|-5-5-5-5-5-----0--|
  1  2  3  4   1  2  3  4   1  2  3  4   1  2  3  4

G|-----------------|-----------------|-----------------|-----------------|
D|-----------------|-----------------|-----------6-----|-----------------|
A|---------------2-|-2-2-2-2-2-4-6---|-----------------|-----------6-7---|
E|-0-0-0-0-0-2-4---|---------------4-|-4-4-4-4-4---4-5-|-5-5-5-5-5-----0-|
  1  2  3  4   1  2  3  4   1  2  3  4   1  2  3  4

G|-----------------|-----------------|-----------------|-----------------|
D|-----------------|-----------------|-----------------|-----------------|
A|--------------2--|-2-2-2-2-2-4-6-4-|-4-4-4-4-4-4-7---|-----------6-7---|
E|-0-0-0-0-0-2-4---|-----------------|---------------5-|-5-5-5-5-5-----0-|
  1  2  3  4   1  2  3  4   1  2  3  4   1  2  3  4

G|-----------------|-----------------|-----------------|-----------------|
D|-----------------|-----------------|-----------6-----|-----------------|
A|---------------2-|-2-2-2-2-2-4-6---|---------------0-|-0-0-0-0-0-0-0-0-|
E|-0-0-0-0-0-2-4---|---------------4-|-4-4-4-4-4---4---|-----------------|
  1  2  3  4   1  2  3  4   1  2  3  4   1  2  3  4

 2nd CHORUS
G|-----------------|-----1-2-2-1-----|-----------------|-----------------|
D|-----------------|-------------2---|-----------------|---2p1-1-2p1-1-2-|
A|-0-0-0-0-0-0-0-0-|-0-0-----------2-|-----------------|-----------------|
E|-----------------|-----------------|-0-0-0-0-0-0-0-0-|-0---------------|
  1  2  3  4   1  2  3  4   1  2  3  4   1  2  3  4

G|-----------------|-----1---2-1-----|-----------------|-----------------|
D|-----------------|-------------2---|-----------------|---2p1-1-2p1-1-2-|
A|-0-0-0-0-0-0-0-0-|-0-0-----------2-|-----------------|-----------------|
E|-----------------|-----------------|-0-0-0-0-0-0-0-0-|-0---------------|
  1  2  3  4   1  2  3  4   1  2  3  4   1  2  3  4

G|-----------------|---2p1-1-2p1-1-2-|-----------------|-----------------|
D|-----------------|-----------------|-----------------|---2p1-1-2p1-1-2-|
A|-0-0-0-0-0-0-0-0-|-0---------------|-----------------|-----------------|
E|-----------------|-----------------|-0-0-0-0-0-0-0-0-|-0---------------|
  1  2  3  4   1  2  3  4   1  2  3  4   1  2  3  4

G|-----------------|-----1-2---1-----|----------------|----------------|
D|-----------------|-------------2---|----------------|-----2----------|
A|-0-0-0-0-0-0-0-0-|-0-0-----------0-|-2--------------|-2-----0--------|
E|-----------------|-----------------|-------0--------|----------------|
  1  2  3  4   1  2  3  4   1  2  3  4  1  2  3  4

 GUITAR SOLO
G|-----------------|-----------------|-----------------|-----------------|
D|-----------------|-----------------|-----------------|-----------------|
A|--------------2--|-2-2-2-2-2-4-6-4-|-4-4-4-4-4-4-7---|-------------6-7-|
E|-0-0-0-0-0-2-4---|-----------------|---------------5-|-5-5-5-5-5-5-----|
  1  2  3  4   1  2  3  4   1  2  3  4   1  2  3  4

G|-----------------|-----------------|-----------------|-----------------|
D|-----------------|-----------------|-----------6-----|-----------------|
A|---------------2-|-2-2-2-2-2-4-6---|-----------------|-------------6-7-|
E|-0-0-0-0-0-2-4---|---------------4-|-4-4-4-4-4---4-5-|-5-5-5-5-5-5-----|
  1  2  3  4   1  2  3  4   1  2  3  4   1  2  3  4

 (Don't stop...)
G|------------------|-----------------|-----------------|-----------------|
D|*-----------------|-----------------|-----------------|-----------------|
A|*--------------2--|-2-2-2-2-2-4-6-4-|-4-4-4-4-4-4-7---|-------------6-7-|
E|-0-0-0-0-0-2-4----|-----------------|---------------5-|-5-5-5-5-5-5-----|
  1  2  3  4   1  2  3  4   1  2  3  4   1  2  3  4

G|-----------------|-----------------|-----------------|------------------|
D|-----------------|-----------------|-----------6-----|-----------------*|
A|---------------2-|-2-2-2-2-2-4-6---|---------------0-|-------------6-7-*|
E|-0-0-0-0-0-2-4---|---------------4-|-4-4-4-4-4---4---|-5-5-5-5-5-5------|
  1  2  3  4   1  2  3  4   1  2  3  4   1  2  3  4

                             (Repeat and fade)

Almost there ...

Sign in to get your own page with links to favourite songs and more. You are just one click away...

Login with Facebook Login with Google