Log in

One click and you are in

Login with Facebook Login with Google

Why sign up and log in

Guitar Tabs Explorer
Journey tabs for Dont stop believing (Ver. 2)

Guitar tabs with lyrics

-------------------------------------------------16--------------------------|
-------17-16-14-12--17-16-14-12--17-16-14-12-----16--------------------------|
------------------------------------------------------------------------------|
------------------------------------------------------------------------------|
------------------------------------------------------------------------------|
------------------------------------------------------------------------------|
 Intro-solo, picking starts muted then rings out, play very very fast at end

---p--p--p--p--p--p----p--p--p--p--p--p--p------------------------------------|
------------------------------------------------------------------------------|
---2--2--2--2--2--2-----------------------------------------------------------|
---2--2--2--2--2--2----2--2--2--2--2--2--2------------------------------------|
---0--0--0--0--0--0----2--2--2--2--2--2--2------------------------------------|
-----------------------0--0--0--0--0--0--0------------------------------------|
 Palm muted, "Strangers...waiting..." Struming isn't exact, listen to song

---p--p--p--p--p--p-----------------------------------------------------------|
------------------------5-----------------------------------------------------|
------------------------2-----------------------------------------------------|
---2--2--2--2--2--2-----------------------------------------------------------|
---2--2--2--2--2--2-----------------------------------------------------------|
---0--0--0--0--0--0-----------------------------------------------------------|
 "Shadows searching..." This comes after "night", downstroke the last chord

-------------------------p----------------------------------------------------|
---------------------------------16v-17v-16v-17-14----------------------------|
------------------------------------------------------------------------------|
-------------------------2----------------------------------------------------|
-------------------------2----------------------------------------------------|
-------------------------0----------------------------15---------------------|
 "...somewhere in the niiiiight"      After this slide second guitar enters

------------------------------------------------------------------------------|
------------------------------------------------------------------------------|
------------------------------------------------------------------------------|
---------------------1-------1-2------1-2--------x2---------------------------|
-------------2v--2-4---4v--4-----0--4-----------------------------------------|
---0---0-2-4------------------------------------------------------------------|
 1st guitar(G1)

------------------------------------------------------------------------------|
------------------------------------------------------------------------------|
------------------------------------------------------------------------------|
---------------------1------------1-2-----------------------------------------|
-------------2v--2-4----------------------------------------------------------|
---0--0-2-4-------------4v--5v------------------------------------------------|
 "Payin' anything to roll..."

------------------------------------------------------------------------------|
------------------------------------------------------------------------------|
------------------------------------------------------------------------------|
---------------------1-------1-2------1-2-------------------------------------|
-------------2v--2-4---4v--4-----0--4-----------------------------------------|
--0--0-2-4--------------------------------------------------------------------|
 "Some will win, some will lose..."

------------------------------------------------------------------------------|
------------------------------------------------------------------------------|
------------------------------------------------------------------------------|
--------------------1---------------------------------------------------------|
------------2v--2-4-----------------------------------------------------------|
--0--0-2-4--------------4v--5v------------------------------------------------|
 "Oh the movie never ends..."

----p-p-p-p-p----p-p-p-p-p-p---p-p-p-p-p-p---p-p-p-p-p-p----------------------|
------------------------------------------------------------------------------|
------------------------------------------------------------------------------|
-------------------------6-8-6-6-6-6-6-8-9-----------6-8-9---x2---------------|
----2-2-2-4-6--9-9-9-9-9-4-6-4-4-4-4-4-6-7-7-7-7-7-7-4-6-7--------------------|
----0-0-0-2-4--7-7-7-7-7-------------------5-5-5-5-5--------------------------|
 While G1 plays that main riff, G2 plays this...not exact, hopefully close

----p-p-p-p-p----p-p-p-p-p-p---p-p-p-p-p-p-p----p-p-p-p-p-p-p-----------------|
------------------------------------------------------------------------------|
------------------------------------------------------------------------------|
-------------------------6-8--------------------------------------------------|
--2-2-2-2-4-6--9-9-9-9-9-4-6-6-6-6-6-6-6-6-6--7-7-7-7-7-7-7-7-----------------|
--0-0-0-0-2-4--7-7-7-7-7-----4-4-4-4-4-4-4-4--5-5-5-5-5-5-5-5-----------------|
 "Payin' anything to roll..."  Also play this for "Oh the movie never ends.."

------------------------------------------------------------------------------|
------------------------------------------------------------------------------|
------------------------------------------------------------------------------|
------------------------------------------------------------------------------|
------------------------------------------------------------------------------|
------------------------------------------------------------------------------|
 Then back to "Strangers...waiting..." Same pattern...just both guitars

-------------------------p----------------------------------------------------|
-----------------------------------16v-17v-16v-17-14--------------------------|
------------------------------------------------------------------------------|
-------------------------2----------------------------------------------------|
-------------------------2----------------------------------------------------|
-------------------------0----------------------------15---------------------|
 "...somewhere in the niiiiiight"

-------417--16v--12--17--16v--16/1716--14--12--11--12-----------------------|
---------------------------------------------------------14--12--10-----------|
------------------------------------------------------------------------------|
------------------------------------------------------------------------------|
------------------------------------------------------------------------------|
------------------------------------------------------------------------------|
 solo

------16b17--16v--14--17--16--14-12--19v-----------23v--24v------------------|
------------------------------------------------------------------------------|
------------------------------------------------------------------------------|
------------------------------------------------------------------------------|
------------------------------------------------------------------------------|
------------------------------------------------------------------------------|
                                    let ring      separate guitar plays this

----p-p-p-p-p----p-p-pp--p-p---p-p-p-p-p-p----p-p-p---p-p-p-------------------|
------------------------------------------------------------------------------|
------------------------------------------------------------------------------|
-------------------------6-8-6-6-6-6-6-8-9------------6-8-9-------------------|
--2-2-2-2-4-6--9-9-9-9-9-4-6-4-4-4-4-4-6-7--7-7-7-7---4-6-7-------------------|
--0-0-0-0-2-4--7-7-7-7-7--------------------5-5-5-5---------------------------|
 Final pattern changes for G2 "Don't stop...believing..."

------------------------------------------------------------------------------|
------------------------------------------------------------------------------|
------------------------------------------------------------------------------|
------------------------------------------------------------------------------|
------------------------------------------------------------------------------|
------------------------------------------------------------------------------|
 Same pattern as "Payin' anything..." second variation, G1 same 2 patterns

------------------------------------------------------------------------------|
------------------------------------------------------------------------------|
------------------------------------------------------------------------------|
------------------------------------------------------------------------------|
------------------------------------------------------------------------------|
------------------------------------------------------------------------------|
 Fade Out...

Other versions of Don't Stop Believing

Don't stop believingChords
Don't stop believing (Ver. 2)Chords
Don't stop believing acousticChords
Don't stop believing acoustic (Ver. 2)Chords
Don't stop believingTabs
Don't stop believing acousticTabs

Almost there ...

Sign in to get your own page with links to favourite songs and more. You are just one click away...

Login with Facebook Login with Google