Log in

One click and you are in

Login with Facebook Login with Google

Why sign up and log in

Guitar Tabs Explorer
Journey tabs for Chain reaction

Guitar tabs

PM       PM
  A chord diagramE MajorE  A chord diagramE MajorE  A chord diagramE MajorE  A chord diagramE MajorE  A chord diagramE MajorE  A chord diagramE MajorE  A chord diagramE MajorE  A chord diagramE MajorE     A chord diagramE MajorE  A chord diagramE MajorE  A chord diagramE MajorE  A chord diagramE MajorE
--------------------------|--------------|
--L--3--3-----3--3-----3--|--L--3--3-----|
--L--2--1-----1--1-----2--|--L--2--4-----|
--L--0--0--0--0--0--0--0--|--L--0--0-----|
--------------------------|--------------|
--------------------------|--------------|


Repeat this pattern until the end - fade

       PM PM PM PM PM PM PM PM PM PM PM PM
  Q    S  S  S  S  S  S  S  S  S  S  S  S
--3----------------------------------------|
--3----------------------------------------|
--5----------------------------------------|
--5----------------------------------------|
-------------------------------------------|
-------3--3--3--3--3--3--3--3--3--3--3--3--|


       PM PM PM PM PM PM PM PM PM PM PM PM
  Q    S  S  S  S  S  S  S  S  S  S  S  S
--1----------------------------------------|
--1----------------------------------------|
--3----------------------------------------|
--3----------------------------------------|
-------------------------------------------|
-------3--3--3--3--3--3--3--3--3--3--3--3--|





Guitar 2  lead:


     W
A chord diagramE MajorE||-------------------|-------|-------|-------|-------|-------|-------|-------|
A chord diagramBB||-------------------|-------|-------|-------|-------|-------|-------|-------|
A chord diagramG+G||-------------------|-------|-------|-------|-------|-------|-------|-------|
A chord diagramD MajorD||-------------------|-------|-------|-------|-------|-------|-------|-------|
A chord diagramA augmentedA||-------------------|-------|-------|-------|-------|-------|-------|-------|
A chord diagramE MajorE||-------------------|-------|-------|-------|-------|-------|-------|-------|


Short solo near the beginning right after first chorus
             \1
                                             |---3---|
   Q      H         S  S  S  S     Q     A chord diagramE MajorE   S   S   S  Q    Q
----------------------20-19----|----------------------------------|-------|
--18b----18~--------L-------15-|----------------------------------|-------|
-------------------------------|--16~----L------------------------|-------|
-------------------------------|------------17p-15h-16-17----L----|-------|
-------------------------------|----------------------------------|-------|
-------------------------------|----------------------------------|-------|





Overdub during interlude section:

                  H        A chord diagramE MajorE  A chord diagramE MajorE  A chord diagramE MajorE  A chord diagramE MajorE     A chord diagramE MajorE  A chord diagramE MajorE  Q    A chord diagramE MajorE  A chord diagramE MajorE  A chord diagramE MajorE  A chord diagramE MajorE
-------|-------|-----------------------|-------------------------|
-------|-------|-----------------5-----|----------------------5--|
-------|-------|--5--------L--7-----7--|--L-------------4--7-----|
-------|-------|-----------------------|-----5--L----L-----------|
-------|-------|-----------------------|-------------------------|
-------|-------|-----------------------|-------------------------|


  H        A chord diagramE MajorE  A chord diagramE MajorE  A chord diagramE MajorE  A chord diagramE MajorE     W                   H        A chord diagramE MajorE  A chord diagramE MajorE  A chord diagramE MajorE  A chord diagramE MajorE
-----------------7-----|-------------------|-----------------------|
--L--------L--8-----5--|--L----------------|-----------------5-----|
-----------------------|-------------------|--5--------L--7-----7--|
-----------------------|-------------------|-----------------------|
-----------------------|-------------------|-----------------------|
-----------------------|-------------------|-----------------------|


  A chord diagramE MajorE  A chord diagramE MajorE  Q    A chord diagramE MajorE  A chord diagramE MajorE  A chord diagramE MajorE  A chord diagramE MajorE     H        A chord diagramE MajorE  A chord diagramE MajorE  A chord diagramE MajorE  A chord diagramE MajorE     W
-------------------------|-----------------------|-------------------|
----------------------5--|--L--------L--8--5--5--|--L----------------|
--L-------------4--7-----|--------------------4--|--L----------------|
-----5--5----5-----------|-----------------------|-------------------|
-------------------------|-----------------------|-------------------|
-------------------------|-----------------------|-------------------|


                                                  PM PM PM PM          PM
  H.           A chord diagramE MajorE   A chord diagramE MajorE     A chord diagramE MajorE  A chord diagramE MajorE  Q    A chord diagramE MajorE  Q    A chord diagramE MajorE     A chord diagramE MajorE  A chord diagramE MajorE  A chord diagramE MajorE  A chord diagramE MajorE  A chord diagramE MajorE  Q     A chord diagramE MajorE
----------------------|------------------------|--------------------------|
--6----------------8--|--L--8--8----L--8-------|--------------------------|
--5---------------10--|--L--7--7----L--7-------|--------------7-----------|
----------------------|------------------------|--------------7-----------|
----------------------|---------------------5--|--5--5--5--5-----5\----3--|
----------------------|------------------------|--------------------------|


  PM PM PM PM                PM PM PM PM          PM
  A chord diagramE MajorE  A chord diagramE MajorE  A chord diagramE MajorE  A chord diagramE MajorE  A chord diagramE MajorE  A chord diagramE MajorE  A chord diagramE MajorE  A chord diagramE MajorE     A chord diagramE MajorE  A chord diagramE MajorE  A chord diagramE MajorE  A chord diagramE MajorE  A chord diagramE MajorE  Q     A chord diagramE MajorE
--------------------------|--------------------------|
--------------------------|--------------------------|
--------------------------|--------------7-----------|
--------------------------|--------------7-----------|
--3--3--3--3--3--2--0--5--|--5--5--5--5-----5\----3--|
--------------------------|--------------------------|


  PM PM PM PM
  A chord diagramE MajorE  A chord diagramE MajorE  A chord diagramE MajorE  A chord diagramE MajorE  A chord diagramE MajorE  A chord diagramE MajorE  A chord diagramE MajorE  A chord diagramE MajorE
--------------------------|-----|-------|-------|-------|-------|-------|
--------------------------|-----|-------|-------|-------|-------|-------|
--------------------------|-----|-------|-------|-------|-------|-------|
-----------------------7--|-----|-------|-------|-------|-------|-------|
--3--3--3--3--3--2--0--5--|-----|-------|-------|-------|-------|-------|
--------------------------|-----|-------|-------|-------|-------|-------|






solo - which is actually the outro to fade:

                   Q      Q     A chord diagramE MajorE   A chord diagramE MajorE   A chord diagramE MajorE   A chord diagramE MajorE
-------|-------|-------------------------------|
-------|-------|--18b----18~----L----------15--|
-------|-------|-----------------------16------|
-------|-------|-------------------15----------|
-------|-------|-------------------------------|
-------|-------|-------------------------------|


   A chord diagramE MajorE   A chord diagramE MajorE   S  S  S  S  S  S  A chord diagramE MajorE   Q        Q      Q     A chord diagramE MajorE   A chord diagramE MajorE   A chord diagramE MajorE   A chord diagramE MajorE
----------------------15-17-15--15----|-------------------------------|
------15--------15--------------------|--18b----18~----L----------15--|
--16------16-16----16-----------------|-----------------------16------|
--------------------------------------|-------------------15----------|
--------------------------------------|-------------------------------|
--------------------------------------|-------------------------------|


   A chord diagramE MajorE   A chord diagramE MajorE   Q      H             Q      Q     A chord diagramE MajorE   A chord diagramE MajorE   A chord diagramE MajorE   A chord diagramE MajorE
----------------------------|-------------------------------|
------15--------------------|--18b----18~----L----------15--|
--16------16~---------------|-----------------------16------|
-----------------17~--------|-------------------15----------|
----------------------------|-------------------------------|
----------------------------|-------------------------------|


         |---3---|
   Q     A chord diagramE MajorE   A chord diagramE MajorE   A chord diagramE MajorE   E.   S  Q        Q      Q     A chord diagramE MajorE   A chord diagramE MajorE   A chord diagramE MajorE   A chord diagramE MajorE
----------------15--19---19-19----|-------------------------------|
------------15--------------------|--18b----18~----L----------15--|
--16----16------------------------|-----------------------16------|
----------------------------------|-------------------15----------|
----------------------------------|-------------------------------|
----------------------------------|-------------------------------|


   A chord diagramE MajorE   S  S  Q     S   S  A chord diagramE MajorE  S  S  A chord diagramE MajorE
---------------------------------------|
------15-----------------------15-18b--|
--16-----16--L----17p-16---------------|
-------------------------17--L---------|
---------------------------------------|
---------------------------------------|


  |-6-|  |---6--|  |-6-|  |---6--|  |-6-|  |---6--|  |-6-|  |---6--|
  A chord diagramE MajorE   S  S   S  S  A chord diagramE MajorE   S  S   S  S  A chord diagramE MajorE   S  S   S  S  A chord diagramE MajorE   S  S   S  S
-----15---------------15---------------15---------------15------------|
--L-----18p-15-18b-L-----18p-15-18b-L-----18p-15-18b-L-----18p-15-18b-|
----------------------------------------------------------------------|
----------------------------------------------------------------------|
----------------------------------------------------------------------|
----------------------------------------------------------------------|


  Q    E.  S  S  S  S  S S  S  A chord diagramE MajorE      A chord diagramE MajorE   A chord diagramE MajorE   S  S  S  S  S  S  S  S  S  E.
----------------------------------|------------------------------------------|
--L----L---L-15-18-15-------------|------------------------------------------|
----------------------17-L-15-17--|--17--15--17-17-17-15-17----15------------|
----------------------------------|-------------------------17----17-15-17---|
----------------------------------|------------------------------------------|
----------------------------------|------------------------------------------|


   S  S  S  S  S  E.  A chord diagramE MajorE   A chord diagramE MajorE  A chord diagramE MajorE   A chord diagramE MajorE
------------------------------------|
------------------------------------|
--15----------15---------15-----15--|
-----17-15-17----17---L-------------|
------------------------------------|
------------------------------------|


            |---3--|
  A chord diagramE MajorE   S  S  S   S  S  S  S  S  S  S  S  S  S  S  S
---------------------------------------------------|
--------15-18p-15----15----------------------------|
-----17-----------17----17-17-15-17----15----------|
------------------------------------17----17-15----|
------------------------------------------------17-|
---------------------------------------------------|


                               |-----5-----|
   S  S  S  S  S  T   T  S  S  S  S  S  S  S  T  T  E.
--------------------------------------------------------|
--------------------------------------------------------|
---------------------------------------------------15---|
---------------------------------15-17-15----15-17------|
--15-17-15----15-17p-15----15-17----------17------------|
-----------18-----------18------------------------------|


  Q     Q    S E.   Q       Q    Q    S S S S A chord diagramE MajorE  A chord diagramE MajorE     A chord diagramE MajorE  A chord diagramE MajorE  Q     Q     Q
-------------------------|--------------------------|--------------------------|
-------------------------|------------------3-------|--------------------------|
--L----------------------|----------------3------3--|--L--5--5b----5b----5b----|
-------17----------------|------------3-5-----5-----|--------------------------|
-------------------------|--------------------------|--------------------------|
-------------3-3b---L----|--L-----------------------|--------------------------|


  S  S   A chord diagramE MajorE  S   S   A chord diagramE MajorE  S   S   A chord diagramE MajorE  S   S   A chord diagramE MajorE     A chord diagramE MajorE  A chord diagramE MajorE  A chord diagramE MajorE  A chord diagramE MajorE  H
---------------------------------------------|-----------------------|
---------------------------------------------|-----------------------|
--5b-5pb----5pb-5pb----5pb-5pb----5pb-5pb----|--5--5--5--5--5--------|
---------------------------------------------|-----------------------|
---------------------------------------------|-----------------------|
---------------------------------------------|-----------------------|


  H        Q.     A chord diagramE MajorE     Q    Q    S S S S S S  S S
---------------------|-----------------------------|-------||
---------------------|-----------------------------|-------||
--L--------L------5--|--L----5----5-4-------5p-4---|-------||
---------------------|------------------5-L------5-|-------||
---------------------|-----------------------------|-------||
---------------------|-----------------------------|-------||

Other versions of Chain Reaction

Chain reactionChords

Almost there ...

Sign in to get your own page with links to favourite songs and more. You are just one click away...

Login with Facebook Login with Google