Log in

One click and you are in

Login with Facebook Login with Google

Why sign up and log in

Guitar Tabs Explorer
Journey bass tabs for Chain reaction

Bass tabs

W          Q  E S S E S S E S S  Q  E E E E E S S
G||-------------------|----------------------------|--------------------------|
D||-------------------|----------------------------|----------------------5-5-|
A||-------------------|----------------------------|--------------------------|
E||-------------------|--3----3--3-3-3--3-3-3--3-3-|--1----3--3--3--3--3------|
 Q  E S S E S S E S S  Q  E E E E E S S
----------------------------|--------------------------|
----------------------------|----------------------5-5-|
----------------------------|--------------------------|
--3----3--3-3-3--3-3-3--3-3-|--1----3--3--3--3--3------|


 Q  E S S E S S E S S  Q  E S S E S S E S S
----------------------------|----------------------------|
----------------------------|----------------------------|
----------------------------|----------------------------|
--3----3--3-3-3--3-3-3--3-3-|--1----3--3-3-3--3-3-3--3-3-|


 Q  E S S E S S E S S  Q.   E H      Q  E S S E S S E S S
----------------------------|---------------------|----------------------------|
----------------------------|---------------------|----------------------------|
----------------------------|---------------------|----------------------------|
--1----1--1-1-1--1-1-1--1-1-|--0------0--L--------|--3----3--3-3-3--3-3-3--3-3-|


 Q  E E E E E S S  Q  E S S E S S E S S
--------------------------|----------------------------|
----------------------5-5-|----------------------------|
--------------------------|----------------------------|
--1----3--3--3--3--3------|--3----3--3-3-3--3-3-3--3-3-|


 Q  E E E E E S S  Q  E S S E S S E S S
--------------------------|----------------------------|
----------------------5-5-|----------------------------|
--------------------------|----------------------------|
--1----3--3--3--3--3------|--3----3--3-3-3--3-3-3--3-3-|

 Q  E S S E S S E S S  Q  E S S E S S E S S  Q.   E H
----------------------------|----------------------------|---------------------|
----------------------------|----------------------------|---------------------|
----------------------------|----------------------------|---------------------|
--1----3--3-3-3--3-3-3--3-3-|--1----1--1-1-1--1-1-1--1-1-|--0------0--0--------|


 Q  E S S E S S E S S  Q  E E E E E S S
----------------------------|--------------------------|
----------------------------|----------------------5-5-|
----------------------------|--------------------------|
--3----3--3-3-3--3-3-3--3-3-|--1----3--3--3--3--3------|


 Q  E S S E S S E S S  Q  E E E E E S S
----------------------------|--------------------------|
----------------------------|----------------------5-5-|
----------------------------|--------------------------|
--3----3--3-3-3--3-3-3--3-3-|--1----3--3--3--3--3------|


 Q  E S S E S S E S S  Q  E S S E S S E S S
----------------------------|----------------------------|
----------------------------|----------------------------|
----------------------------|----------------------------|
--3----3--3-3-3--3-3-3--3-3-|--1----3--3-3-3--3-3-3--3-3-|


 Q  E S S E S S E S S  Q.   E H      Q.   E H
----------------------------|---------------------|---------------------|
----------------------------|---------------------|---------------------|
----------------------------|---------------------|---------------------|
--1----1--1-1-1--1-1-1--1-1-|--0------0--0--------|--0------0--0--------|


 E E E E E E E E   E E E E E E E E
--------------------------|--------------------------|
--------------------------|--------------------------|
--5--5--5--5--5--5--5--5--|--5--5--5--5--5--3--3--5--|
--------------------------|--------------------------|


 E E E E E E E E   E E E E E E E E
--------------------------|--------------------------|
--------------------------|-----------------6--7-----|
--L--5--5--5--5--5--5--5--|--5--5--5--5--5-----------|
--------------------------|-----------------------0--|


 E E E E E E E E   E E E E E E E E
--------------------------|--------------------------|
--------------------------|--------------------------|
--------------------------|-----------------------5--|
--L--0--0--0--0--0--0--0--|--0--0--0--0--0--0--0-----|


 E E E E E E E E   E S S Q    Q  E S S E S S E S S
--------------------------|----------------|----------------------------|
--------------------------|----------------|----------------------------|
--L--5--5--5--5--5--5--5--|--5-------------|----------------------------|
--------------------------|-----x-x-10\----|--3----3--3-3-3--3-3-3--3-3-|


 Q  E E E E E E   Q  E S S E S S E S S
-------------------------|----------------------------|
-------------------------|----------------------------|
-------------------------|----------------------------|
--1----3--3--3--3--3--3--|--3----3--3-3-3--3-3-3--3-3-|


 Q  E E E E E E   Q  E S S E S S E S S
-------------------------|----------------------------|
-------------------------|----------------------------|
-------------------------|----------------------------|
--1----3--3--3--3--3--3--|--3----3--3-3-3--3-3-3--3-3-|


 Q  E E E E E S S  Q  E S S E S S E S S
--------------------------|----------------------------|
----------------------5-5-|----------------------------|
--------------------------|----------------------------|
--1----3--3--3--3--3------|--3----3--3-3-3--3-3-3--3-3-|


 Q  E E E E E S S  Q  E S S E S S E S S
--------------------------|----------------------------|
----------------------5-5-|----------------------------|
--------------------------|----------------------------|
--1----3--3--3--3--3------|--3----3--3-3-3--3-3-3--3-3-|


 Q  E S S E S S E S S  Q  E S S E S S E S S  Q.   E H
----------------------------|----------------------------|---------------------|
----------------------------|----------------------------|---------------------|
----------------------------|----------------------------|---------------------|
--1----3--3-3-3--3-3-3--3-3-|--1----1--1-1-1--1-1-1--1-1-|--0------0--L--------|


 Q  E S S E S S E S S  Q  E E E E E S S
----------------------------|--------------------------|
----------------------------|----------------------5-5-|
----------------------------|--------------------------|
--3----3--3-3-3--3-3-3--3-3-|--1----3--3--3--3--3------|


 Q  E S S E S S E S S  Q  E E E E E S S
----------------------------|--------------------------|
----------------------------|----------------------5-5-|
----------------------------|--------------------------|
--3----3--3-3-3--3-3-3--3-3-|--1----3--3--3--3--3------|


 Q  E S S E S S E S S  Q  E S S E S S E S S
----------------------------|----------------------------|
----------------------------|----------------------------|
----------------------------|----------------------------|
--3----3--3-3-3--3-3-3--3-3-|--1----3--3-3-3--3-3-3--3-3-|


 Q  E S S E S S E S S  Q.   E H      Q.   E H
----------------------------|---------------------|---------------------|
----------------------------|---------------------|---------------------|
----------------------------|---------------------|---------------------|
--1----1--1-1-1--1-1-1--1-1-|--0------0--L--------|--0------0--L--------|


 E E E E E E E E   E E E E E E E E
--------------------------|--------------------------|
--------------------------|--------------------------|
--5--5--5--5--5--5--5--5--|--5--5--5--5--5--3--3--5--|
--------------------------|--------------------------|


 E E E E E E E E   E E E E E E E E
--------------------------|--------------------------|
--------------------------|-----------------6--7-----|
--L--5--5--5--5--5--5--5--|--5--5--5--5--5-----------|
--------------------------|-----------------------0--|


 E E E E E E E E   E E E E E E E E
--------------------------|--------------------------|
--------------------------|--------------------------|
--------------------------|-----------------------5--|
--L--0--0--0--0--0--0--0--|--0--0--0--0--0--0--0-----|


 E E E E E E E E   E E E E E E E E
--------------------------|--------------------------|
--------------------------|--------------9--7--4-----|
--L--5--5--5--5--5--5--5--|--5--5--5--5-----------5--|
--------------------------|--------------------------|


 E E E E E E E E   E E E E E E E E
--------------------------|--------------------------|
--------------------------|--------------------------|
--L--5--5--5--5--5--5--5--|--5--5--5--5--5--3--3--5--|
--------------------------|--------------------------|


 E E E E E E E E   E E E E E E E E
--------------------------|--------------------------|
--------------------------|-----------------6--7-----|
--L--5--5--5--5--5--5--5--|--5--5--5--5--5-----------|
--------------------------|-----------------------0--|


 E E E E E E E E   E E E E E E E E
--------------------------|--------------------------|
--------------------------|--------------------------|
--------------------------|-----------------------5--|
--L--0--0--0--0--0--0--0--|--0--0--0--0--0--0--0-----|


 E E E E E E E E   E E E E   H    E E E E
--------------------------|--------------|-----------------------|
--------------------------|--------------|-----------------------|
--L--5--5--5--5--5--5--5--|--5--5--5-----|--3--------3--2--0-----|
--------------------------|--------------|--------------------3--|


 H    Q  E E   H    E E E E   W
----------------------|-----------------------|-------------------|
----------------------|-----------------5-----|-------------------|
----------------------|-----------0--3--------|-------------------|
--L--------L----3--5--|--L-----------------0--|--L----------------|


 H    E E E E   H    Q  E E   H    E E E E
-----------------------|----------------------|-----------------------|
-----------------------|----------------------|-----------------5-----|
--3--------3--2--0-----|----------------------|-----------0--3--------|
--------------------3--|--L--------L----3--5--|--L-----------------0--|


 W          H    Q  E E   E E Q  E Q  E
-------------------|----------------------|------------------------|
-------------------|----------------------|------------------------|
-------------------|-------------------1--|--L--3--3----L--3----5--|
--L----------------|--1--------L----------|------------------------|


 E E E E E E E E   E E E E E E E E
--------------------------|--------------------------|
--------------5--4--------|--------------------------|
--L--5--5--5--------3--3--|--L--3--3--3--3--2--0--5--|
--------------------------|--------------------------|


 E E E E E E E E   E E E E E E E E   Q   Q  H
--------------------------|--------------------------|----------------------|
-----------------6--------|--------------------------|----------------------|
--L--5--5--5--5-----3--3--|--L--3--3--3--3--3--3--5--|--L\------------------|
--------------------------|--------------------------|----------------------|


 W          Q  S S S S Q  S S S S
-------------------|-------7s-6s-7--------7s-6s-7---|
-------------------|--------------------------------|
-------------------|--------------------------------|
-------------------|--------------------------------|


 Q  S S S S Q  E E   Q   Q  H      W
-------7s-6s-7--------------|----------------------|-------------------|
----------------------------|----------------------|-------------------|
----------------------5--5--|--L\------------------|-------------------|
----------------------------|----------------------|-------------------|


 H    E Q  E   E E Q  E E E E   E E E E E E E E
--------------7----7--|--L----------------------|--------------------------|
----------------------|-----7-------7--6--------|--------------------------|
----------------------|--------5----------5--5--|--5--5--5--5--5--5--5--5--|
----------------------|-------------------------|--------------------------|


 E E E E E E E E   E E E E E E E E
--------------------------|--------------------------|
--------------------------|--------------------------|
--5--5--5--5--5--3--3--5--|--L--5--5--5--5--5--5--5--|
--------------------------|--------------------------|


 E E E E E E E E   E E E E E E E E
--------------------------|--------------------------|
-----------------6--7-----|--------------------------|
--5--5--5--5--5-----------|--------------------------|
-----------------------0--|--L--0--0--0--0--0--0--0--|


 E E E E E E E E   E E E E E E E E
--------------------------|--------------------------|
--------------------------|--------------------------|
-----------------------5--|--L--5--5--5--5--5--5--5--|
--0--0--0--0--0--0--0-----|--------------------------|


 E E E E E E E E   E E E E E E E E
--------------------------|--------------------------|
--------------------------|--------------------------|
--5--5--5--5--5--5--5--5--|--5--5--5--5--5--5--5--5--|
--------------------------|--------------------------|


 E E E E E E E E   E E E E E E E E
--------------------------|--------------------------|
--------------------------|--------------------------|
--5--5--5--5--5--3--3--5--|--L--5--5--5--5--5--5--5--|
--------------------------|--------------------------|


 E E E E E E E E   E E E E E E E E
--------------------------|--------------------------|
-----------------6--7-----|--------------------------|
--5--5--5--5--5-----------|--------------------------|
-----------------------0--|--L--0--0--0--0--0--0--0--|


                                ^
 E E E E E E E E   E E E E E E E E   E E  Q
--------------------------|--------------------------|----------------|
--------------------------|--------------------------|----------------|
-----------------------5--|--L--5--5--5--5--5--5--5--|--5--5--/10\----|
--0--0--0--0--0--0--0-----|--------------------------|----------------|


 Q  E S S E S S E S S  Q  E S S E S S E S S
----------------------------|----------------------------|
----------------------------|----------------------------|
----------------------------|----------------------------|
--3----3--3-3-3--3-3-3--3-3-|--1----3--3-3-3--3-3-3--3-3-|


 Q  E S S E S S E S S  Q  E S S E S S E S S
----------------------------|----------------------------|
----------------------------|----------------------------|
----------------------------|----------------------------|
--3----3--3-3-3--3-3-3--3-3-|--1----3--3-3-3--3-3-3--3-3-|


 Q  E S S E S S E S S  Q  E S S E S S E S S
----------------------------|----------------------------|
----------------------------|----------------------------|
----------------------------|----------------------------|
--3----3--3-3-3--3-3-3--3-3-|--3----3--3-3-3--3-3-3--3-3-|


 Q  E S S E S S E S S  Q  E S S E S S E S S
----------------------------|----------------------------|
----------------------------|----------------------------|
----------------------------|----------------------------|
--3----3--3-3-3--3-3-3--3-3-|--1----3--3-3-3--3-3-3--3-3-|


 Q  E S S E S S E S S  Q  E S S E S S E S S
----------------------------|----------------------------|
----------------------------|----------------------------|
----------------------------|----------------------------|
--3----3--3-3-3--3-3-3--3-3-|--1----3--3-3-3--3-3-3--3-3-|


 Q  E S S E S S E S S  Q  E S S E S S E S S
----------------------------|----------------------------|
----------------------------|----------------------------|
----------------------------|----------------------------|
--3----3--3-3-3--3-3-3--3-3-|--1----3--3-3-3--3-3-3--3-3-|


 Q  E S S E S S E S S  Q  E S S E S S E S S
----------------------------|----------------------------|
----------------------------|----------------------------|
----------------------------|----------------------------|
--3----3--3-3-3--3-3-3--3-3-|--1----3--3-3-3--3-3-3--3-3-|


 Q  E S S E S S E S S  Q  E S S E S S E S S
----------------------------|----------------------------|
----------------------------|----------------------------|
----------------------------|----------------------------|
--3----3--3-3-3--3-3-3--3-3-|--1----3--3-3-3--3-3-3--3-3-|


 Q  E S S E S S E S S  Q  E S S E S S E S S
----------------------------|----------------------------|
----------------------------|----------------------------|
----------------------------|----------------------------|
--3----3--3-3-3--3-3-3--3-3-|--1----3--3-3-3--3-3-3--3-3-|


 Q  E S S E S S E S S  Q  E S S E S S E S S
----------------------------|----------------------------|
----------------------------|----------------------------|
----------------------------|----------------------------|
--3----3--3-3-3--3-3-3--3-3-|--1----3--3-3-3--3-3-3--3-3-|


 Q  E S S E S S E S S  Q  E S S E S S E S S
----------------------------|----------------------------|
----------------------------|----------------------------|
----------------------------|----------------------------|
--3----3--3-3-3--3-3-3--3-3-|--1----3--3-3-3--3-3-3--3-3-|


 Q  E S S E S S E S S  Q  E S S E S S E S S
----------------------------|----------------------------|
----------------------------|----------------------------|
----------------------------|----------------------------|
--3----3--3-3-3--3-3-3--3-3-|--1----3--3-3-3--3-3-3--3-3-|


 Q  E S S E S S E S S  W
----------------------------|-------------------||
----------------------------|-------------------||
----------------------------|-------------------||
--3----3--3-3-3--3-3-3--3-3-|--3----------------||

Almost there ...

Sign in to get your own page with links to favourite songs and more. You are just one click away...

Login with Facebook Login with Google