Log in

One click and you are in

Login with Facebook Login with Google

Why sign up and log in

Guitar Tabs Explorer
Journey bass tabs for Back talk

Bass tabs with lyrics

Tuning: Standard (E A D G)

Difficulty: Intermediate

Bass

   W          W          W
G||-------------------|-------------------|-------------------|
D||-------------------|-------------------|-------------------|
A||-------------------|-------------------|-------------------|
E||-------------------|-------------------|-------------------|


 W          E S E S E S S S S S S E
-------------------|------------------------------|
-------------------|------------------------------|
-------------------|------------------------------|
-------------------|--3----3----3----0-0---0-0----|


 E S E S E S S S S S S S S  E S E S E S S S S S S E
-------------------------------|------------------------------|
-------------------------------|------------------------------|
-------------------------------|------------------------------|
--3----3----3----0-0---0-0-0-0-|--3----3----3----0-0---0-0----|


 E S E S E S S S S S S E   Q  Q   H      H.      S S E
------------------------------|----------------------|----------------------|
------------------------------|----------------------|----------------------|
------------------------------|--5----L\-------------|--5------------3-2-0--|
--3----3----3----0-0---0-0----|----------------------|----------------------|

 Q   Q  H      H.      S S E   W
----------------------|----------------------|-------------------|
----------------------|----------------------|-------------------|
--5\------------------|--5------------3-2-0--|-------------------|
----------------------|----------------------|--1----------------|


 H.      S S E   Q   Q  H      H    Q  Q
----------------------|----------------------|---------------------|
----------------------|----------------------|--7--------5----3----|
--5------------3-2-0--|--5\------------------|--5--------3----1----|
----------------------|----------------------|---------------------|


 E S E S E S S S S E E   E S E S E S S Q.
-----------------------------|--------------------------|
-----------------------------|--------------------------|
-----------------------------|-------------------1------|
--3----3----3----------1--1--|--3----3----3-------------|


 E S E S E S S S S E E   E S E S E S S Q.
-----------------------------|--------------------------|
-----------------------------|--------------------------|
-----------------------------|-------------------1------|
--3----3----3----------1--1--|--3----3----3-------------|


 E S E S E S S S S E E   E S E S E S S Q.
-----------------------------|--------------------------|
-----------------------------|--------------------------|
-----------------------------|-------------------1------|
--3----3----3----------1--1--|--3----3----3-------------|


 E S E S E S S S S E E   E S E S E S S Q.    Q  Q   H
-----------------------------|--------------------------|----------------------|
-----------------------------|--------------------------|----------------------|
-----------------------------|-------------------1------|--5----L\-------------|
--3----3----3----------1--1--|--3----3----3-------------|----------------------|


 H.      S S E   Q   Q  H      H.      S S E
----------------------|----------------------|----------------------|
----------------------|----------------------|----------------------|
--5------------3-2-0--|--5\------------------|--5------------3-2-0--|
----------------------|----------------------|----------------------|


 W          H.      S S E   Q   Q  H
-------------------|----------------------|----------------------|
-------------------|----------------------|----------------------|
-------------------|--5------------3-2-0--|--5\------------------|
--1----------------|----------------------|----------------------|


 H    Q  Q    E S E S E S S S S E E   E S E S E S S Q.
---------------------|-----------------------------|--------------------------|
--7--------5----3----|-----------------------------|--------------------------|
--5--------3----1----|-----------------------------|-------------------1------|
---------------------|--3----3----3----------1--1--|--3----3----3-------------|


 E S E S E S S S S E E   E S E S E S S Q.
-----------------------------|--------------------------|
-----------------------------|--------------------------|
-----------------------------|-------------------1------|
--3----3----3----------1--1--|--3----3----3-------------|


 E S E S E S S S S E E   E S E S E S S Q.
-----------------------------|--------------------------|
-----------------------------|--------------------------|
-----------------------------|-------------------1------|
--3----3----3----------1--1--|--3----3----3-------------|


 E S E S E S S S S E E   E S E S E S S Q  E
-----------------------------|----------------------------|
-----------------------------|-------------------3----L\--|
-----------------------------|-------------------1----L\--|
--3----3----3----------1--1--|--3----3----3---------------|


 Q  Q   H      H.      S S E   Q   Q  H
----------------------|----------------------|----------------------|
--7----L\-------------|----------------------|--7\------------------|
--5----L\-------------|--5------------3-2-0--|--5\------------------|
----------------------|----------------------|----------------------|


 H.      S S E   W          H.      S S E
----------------------|--------------------|----------------------|
----------------------|--------------------|----------------------|
--5------------3-2-0--|--------------------|--5------------3-2-0--|
----------------------|--1~----------------|----------------------|


 Q   Q  H      H    Q  Q    E S E S E S S S S E E
----------------------|---------------------|-----------------------------|
----------------------|---------------------|-----------------------------|
--5\------------------|--5--------3----1----|-----------------------------|
----------------------|---------------------|--3----3----3----------1--1--|


 E S E S E S S Q.    E S E S E S S S S E E
--------------------------|-----------------------------|
-------------------3------|-----------------------------|
-------------------1------|-----------------------------|
--3----3----3-------------|--3----3----3----------1--1--|


 E S E S E S S Q.    E S E S E S S S S E E
--------------------------|-----------------------------|
-------------------3------|-----------------------------|
-------------------1------|-----------------------------|
--3----3----3-------------|--3----3----3----------1--1--|


 E S E S E S S Q.    E S E S E S S S S E E
--------------------------|-----------------------------|
-------------------3------|-----------------------------|
-------------------1------|-----------------------------|
--3----3----3-------------|--3----3----3----------1--1--|


 E S E S E S S Q  E   Q  Q   H      H.      S S E
----------------------------|----------------------|----------------------|
-------------------3----L\--|----------------------|----------------------|
-------------------1----L\--|--5----L\-------------|--5------------3-2-0--|
--3----3----3---------------|----------------------|----------------------|


 Q   Q  H      H.      S S E   W
----------------------|----------------------|-------------------|
----------------------|----------------------|-------------------|
--5\------------------|--5------------3-2-0--|-------------------|
----------------------|----------------------|--1----------------|


 H.      S S E   Q   Q  H      H    Q  Q
----------------------|----------------------|---------------------|
----------------------|----------------------|--7--------5----3----|
--5------------3-2-0--|--5\------------------|--5--------3----1----|
----------------------|----------------------|---------------------|


 E S E S E S S S S E E   E S E S E S S Q.
-----------------------------|--------------------------|
-----------------------------|-------------------3------|
-----------------------------|-------------------1------|
--3----3----3----------1--1--|--3----3----3-------------|


 E S E S E S S S S E E   E S E S E S S Q.
-----------------------------|--------------------------|
-----------------------------|-------------------3------|
-----------------------------|-------------------1------|
--3----3----3----------1--1--|--3----3----3-------------|


 E S E S E S S S S E E   E S E S E S S Q.
-----------------------------|--------------------------|
-----------------------------|-------------------3------|
-----------------------------|-------------------1------|
--3----3----3----------1--1--|--3----3----3-------------|


 E S E S E S S S S E E   E S E S E S S Q.
-----------------------------|--------------------------|
-----------------------------|-------------------3------|
-----------------------------|-------------------1------|
--3----3----3----------1--1--|--3----3----3-------------|


 E S E S E S S S S S S E   E S E S E S S S S S S S S
------------------------------|-------------------------------|
------------------------------|-------------------------------|
------------------------------|-------------------------------|
--3----3----3----0-0---0-0----|--3----3----3----0-0---0-0-0-0-|


 E S E S E S S S S S S E   E S E S E S S S S S S S S
------------------------------|--------------------------------|
------------------------------|--------------------------------|
------------------------------|--------------------------------|
--3----3----3----0-0---0-0----|--3----3----3--L/-0-0---0-0-0-0-|


 E S E S E S S S S S S E   E S E S E S S S S S S S S
------------------------------|-------------------------------|
------------------------------|-------------------------------|
------------------------------|-------------------------------|
--3----3----3----0-0---0-0----|--3----3----3----0-0---0-0-0-0-|


 E S E S E S S S S S S E   E S S E E H
------------------------------|------------------------||
------------------------------|------------------------||
------------------------------|------------------------||
--3----3----3----0-0---0-0----|--3----3-L--------------||



Duration 🏷Legend
---------------
W - whole
H - half
Q - quarter
E - 8th
S - 16th
T - 32nd
X - 64th
. - note dotted
|-n-| - n-tuplets


Tablature 🏷Legend
----------------
L - tied note
x - dead note
g - grace note
(n) - ghost note
> - accentuded note
NH - natural harmonic
AH - artificial harmonic
TH - tapped harmonic
SH - semi harmonic
PH - pitch harmonic
h - hammer on
p - pull off
b - bend
br - bendRelease
pb - preBend
pbr - preBendRelease
brb - bendReleaseBend
\
/ - tremolo bar dip
\
 - tremolo bar dive
-/n - tremolo bar Release up
/n\ - tremolo bar inverted dip
/n - tremolo bar return
-\
 - tremolo bar Release down
S - shift slide
s - legato slide
/ - slide into from below or out of upwards
\ - slide into from above or out of downwards
~ - vibrato
W - wide vibrato
tr - trill
TP - tremolo picking
T - tapping
S - slap
P - pop
< - fade in
^ - brush up
v - brush down

Almost there ...

Sign in to get your own page with links to favourite songs and more. You are just one click away...

Login with Facebook Login with Google