Log in

One click and you are in

Login with Facebook Login with Google

Why sign up and log in

Guitar Tabs Explorer
Journey bass tabs for Any way you want it

Bass tabs

-------------------------------------------------------------------------------
			   Any way you want it - Journey
-------------------------------------------------------------------------------
Tabbed By : Zero is great man

Tuning: EADG
Intro: "Any way you want it, That's the way you need it..."
G|-------------------------------------|
D|------------------------0------------|
A|----------3-2-3-2-3-2-3---2--5-3-2---|
E|-3-5-5-3---------------------------3-|


Verse: "She loves to dance, she loves to sing,..."
G|---------------------------------|
D|---------------------------------|
A|----------------3-2-3-2-3-2------|
E|-3-3--2-2--0-0---------------3-3-|


Chorus: "She said Any way you want it, that's the way you need it"
G|---------------------------------------------------------|
D|---------------------------------------------------------|
A|----------------------------------------3-2-3-2-3-2------|
E|-3-3-3-3-3-3--2-2-2-2-2-2--0-0-0-0-0-0---------------3-3-|

Brige part 2: "Hold on, hold on, ho-oo-old - on"
G|--------------------|
D|--------------------|
A|--------------------|
E|-0-0--2-2--3-3--5-5-|

| / slide up
| \ slide down
| h hammer-on
| p pull-off
| ~ vibrato
| + harmonic
| x Mute note

Almost there ...

Sign in to get your own page with links to favourite songs and more. You are just one click away...

Login with Facebook Login with Google