Log in

One click and you are in

Login with Facebook Login with Google

Why sign up and log in

Guitar Tabs Explorer
Journey bass tabs for After the fall

Bass tabs

Tuning: Standard (E A D G)

Key: Am

Difficulty: Intermediate
Bass


   W          W          W
G||-------------------|-------------------|-------------------|
D||-------------------|-------------------|-------------------|
A||-------------------|--3----------------|--3----------------|
E||-------------------|-------------------|-------------------|


          Verse:

 W          Q  Q   Q   Q    S S E S S E S S E S S S S
-------------------|--------------------------|-------------------------------|
-------------------|--------------------------|-------------------------------|
--0----------------|------------------/15\----|--3---3--3---3--3---3--3---3---|
-------------------|--5----L\----3------------|-----------------------------3-|


 S S E S S E S S E S S S S  S S E S S E S S E E S S
-------------------------------|------------------------------|
-------------------------------|------------------------------|
--3---3--3---3--3---3--2---2---|------------------------------|
-----------------------------0-|--5---5--5---5--5---5--5--0-3-|


 S S E S S E S S E E S S  S S E S S E S S E S S S S
------------------------------|-------------------------------|
------------------------------|-------------------------------|
------------------------------|--3---3--3---3--3---3--3---3---|
--5---5--5---5--5---5--3--3---|-----------------------------3-|

 S S E S S E S S E S S S S  S S E S S E S S E E S S
-------------------------------|------------------------------|
-------------------------------|------------------------------|
--3---3--3---3--3---3--2---2---|------------------------------|
-----------------------------0-|--5---5--5---5--5---5--5--0-3-|


               Pre chorus:

 S S E S S E S S E E S S  S S E S S E S S E S S S S
------------------------------|-------------------------------|
------------------------------|---------------------------3---|
------------------------------|-----------------------------3-|
--5---5--5---5--5---5--3--3---|--1---1--1---1--1---1--1-------|


 S S E S S E S S E S S S S  S S E S S E S S E S S S S
-------------------------------|-------------------------------|
-------------------------------|-------------------------------|
---------------------------0-2-|--3---3--3---3--3---3--3---3---|
--1---1--1---1--1---1--1-------|-----------------------------3-|


 S S E S S E S S S S E E   S S E S S E S S E S S S S
------------------------------|-------------------------------|
------------------------------|---------------------------3---|
--3---3--3---3--3---0-2-3-----|-----------------------------3-|
------------------------------|--1---1--1---1--1---1--1-------|


 S S E S S E S S E S S E   W          H.      Q
------------------------------|-------------------|--------------------|
------------------------------|-------------------|--------------------|
------------------------------|--0----------------|--L-----------------|
--1---1--1---1--1---1--3---3--|-------------------|--------------------|


Verse:

 S S E S S E S S E S S S S  S S E S S E S S E S S S S
-------------------------------|-------------------------------|
-------------------------------|-------------------------------|
--3---3--3---3--3---3--3---3---|--3---3--3---3--3---3--2---2---|
-----------------------------3-|-----------------------------0-|


 S S E S S E S S E E S S  S S E S S E S S E E S S
------------------------------|------------------------------|
------------------------------|------------------------------|
------------------------------|------------------------------|
--5---5--5---5--5---5--5--0-3-|--5---5--5---5--5---5--3--3---|


 S S E S S E S S E S S S S  S S E S S E S S E S S S S
-------------------------------|-------------------------------|
-------------------------------|-------------------------------|
--3---3--3---3--3---3--3---3---|--3---3--3---3--3---3--2---2---|
-----------------------------3-|-----------------------------0-|


 S S E S S E S S E E S S  S S E S S E S S E E S S
------------------------------|------------------------------|
------------------------------|------------------------------|
------------------------------|------------------------------|
--5---5--5---5--5---5--5--0-3-|--5---5--5---5--5---5--3--3---|


Pre chorus:

 S S E S S E S S E S S S S  S S E S S E S S E S S S S
-------------------------------|-------------------------------|
---------------------------3---|-------------------------------|
-----------------------------3-|---------------------------0-2-|
--1---1--1---1--1---1--1-------|--1---1--1---1--1---1--1-------|


 S S E S S E S S E S S S S  S S E S S E S S S S E E
-------------------------------|------------------------------|
-------------------------------|------------------------------|
--3---3--3---3--3---3--3---3---|--3---3--3---3--3---0-2-3-----|
-----------------------------3-|------------------------------|


 S S E S S E S S E S S S S  S S E S S E S S E S S E
-------------------------------|------------------------------|
---------------------------3---|------------------------------|
-----------------------------3-|------------------------------|
--1---1--1---1--1---1--1-------|--1---1--1---1--1---1--3---3--|


                     Chorus:

 W          H.      Q    S S E S S E S S E S S E
-------------------|--------------------|------------------------------|
-------------------|--------------------|------------------------------|
--0----------------|--L-----------------|--3---3--3---3--3---3--3---3--|
-------------------|--------------------|------------------------------|


 S S E S S E S S E S S S S  S S E S S E S S E E S S
-------------------------------|------------------------------|
-------------------------------|------------------------------|
--3---3--3---3--3---3--3---2---|------------------------------|
-----------------------------0-|--5---5--5---5--5---5--5--0-3-|


 S S E S S E S S E E S S  S S E S S E S S E S S E
------------------------------|------------------------------|
------------------------------|------------------------------|
--------------------------0-2-|--3---3--3---3--3---3--3---3--|
--5---5--5---5--5---5--5------|------------------------------|


 S S E S S S S S S E S S S S  S S E S S E S S E S S S S
--------------------------------|-------------------------------|
--------------------------------|-------------------------------|
--3---3--3---3-3-3---3--3---2---|-------------------------------|
------------------------------0-|--5---5--5---5--5---5--5-0-2-3-|


 S S E S S E S S E E E   S S E S S E S S E S S E
-----------------------------|------------------------------|
-----------------------------|------------------------------|
-----------------------------|--3---3--3---3--3---3--3---3--|
--5---5--5---5--5---5--3-----|------------------------------|


 S S E S S E S S E S S S S  S S E S S E S S E E S S
-------------------------------|------------------------------|
-------------------------------|------------------------------|
--3---3--3---3--3---3--3---2---|------------------------------|
-----------------------------0-|--5---5--5---5--5---5--5--0-3-|


 S S E S S E S S E E S S  S S E S S E S S E S S E
------------------------------|------------------------------|
------------------------------|------------------------------|
--------------------------0-2-|--3---3--3---3--3---3--3---3--|
--5---5--5---5--5---5--5------|------------------------------|


 S S E S S E S S E S S S S  S S E S S E S S E E S S
-------------------------------|------------------------------|
-------------------------------|------------------------------|
--3---3--3---3--3---3--3---2---|------------------------------|
-----------------------------0-|--5---5--5---5--5---5--5--0-3-|


               Interlude:

 S S E S S E S S E E E   S S E S S E S S E E S S
-----------------------------|------------------------------|
-----------------------------|--------------------------3---|
-----------------------------|----------------------------3-|
--5---5--5---5--5---5--3-----|--0---0--0---0--0---0--0------|


 S S E S S E S S E S S E   W          H    S S S S S S E
------------------------------|-------------------|-----------------5---------|
------------------------------|-------------------|-------------------5-------|
------------------------------|--0----------------|--L--------3---------------|
--0---0--0---0--0---0--0---3--|-------------------|-----------------------8\--|


Verse:

 S S E S S E S S E S S S S  S S E S S E S S E S S S S
-------------------------------|-------------------------------|
-------------------------------|-------------------------------|
--3---3--3---3--3---3--3---3---|--3---3--3---3--3---3--2---2---|
-------------------------3---3-|-----------------------------0-|


 S S E S S E S S E S S S S  S S E S S E S S E S S E
-------------------------------|------------------------------|
-------------------------------|------------------------------|
-------------------------------|------------------------------|
--5---5--5---5--5---5--5-0-2-3-|--5---5--5---5--5---5--3---3--|


 S S E S S E S S E S S S S  S S E S S E S S E S S S S
---------------------------5---|-------------------------------|
-----------------------------5-|-------------------------------|
--3---3--3---3--3---3--3-------|--3---3--3---3--3---3--2---2---|
-------------------------------|-----------------------------0-|


 S S E S S E S S E E S S  S S E S S E S S E E E
------------------------------|------------------------------|
------------------------------|------------------------------|
------------------------------|------------------------------|
--5---5--5---5--5---5--3--0-3-|--5---5--5---5--5---5--3--3\--|


Pre chorus:

 S S E S S E S S E S S S S  S S E S S E S S E S S S S
-------------------------------|-------------------------------|
---------------------------3---|-------------------------------|
-----------------------------3-|---------------------------0-2-|
--1---1--1---1--1---1--1-------|--1---1--1---1--1---1--1-------|


 S S E S S E S S E S S S S  S S E  E E E E S S S S
-------------------------------|---------/7--5----------------|
-------------------------------|----------------7--5--2-0-----|
--3---3--3---3--3---3--3---3---|--3---3-------------------3---|
-----------------------------3-|----------------------------5-|


 S S E S S E S S E S S S S  S S E S S E S S E S S E
-------------------------------|------------------------------|
---------------------------3---|------------------------------|
-----------------------------3-|------------------------------|
--1---1--1---1--1---1--1-------|--1---1--1---1--1---1--1---3--|


                    Chorus:

 W          H.      Q    S S E S S E S S E S S E
-------------------|--------------------|------------------------------|
-------------------|--------------------|------------------------------|
--0----------------|--L-----------------|--3---3--3---3--3---3--3---3--|
-------------------|--------------------|------------------------------|


 S S E S S E S S E S S E   S S E S S E S S E E S S
------------------------------|------------------------------|
------------------------------|------------------------------|
--3---3--3---3--3---3--3---2--|------------------------------|
------------------------------|--5---5--5---5--5---5--5--0-3-|


 S S E S S E S S E E S S  S S E S S E S S E S S E
------------------------------|------------------------------|
------------------------------|------------------------------|
--------------------------0-2-|--3---3--3---3--3---3--3---3--|
--5---5--5---5--5---5--5------|------------------------------|


 S S E S S E S S E S S S S  S S E S S E S S E E E
-------------------------------|-----------------------------|
-------------------------------|-----------------------------|
--3---3--3---3--3---3--3---2---|-----------------------------|
-----------------------------0-|--5---5--5---5--5---5--0--3--|


 S S E S S E S S E  Q    S S E S S E S S E S S S S
------------------------------|---------------------------5---|
------------------------------|-----------------------------5-|
-----------------------12\----|--3---3--3---3--3---3--3-------|
--5---5--5---5--5---5---------|-------------------------------|


 S S E S S E S S S S S S S S  S S E S S E S S E E E
--------------------------------|-----------------------------|
--------------------------------|-----------------------------|
--3---3--3---3--3---3-3-2---2---|-----------------------------|
------------------------------0-|--5---5--5---5--0---5--0--3--|


 S S E S S E S S E E E   S S E S S E S S E S S S S
-----------------------------|-------------------------------|
-----------------------------|-------------------------------|
-----------------------------|--3---3--3---3--3---3--3---3---|
--5---5--5---5--5---5--0--3--|-----------------------------3-|


 S S E S S E S S E S S S S  S S E S S E S S E E S S
-------------------------------|------------------------------|
-------------------------------|------------------------------|
--3---3--3---3--3---3--2---2---|------------------------------|
-----------------------------0-|--5---5--5---5--5---5--5--0-3-|


               Interlude:

 S S E S S E S S E Q    S S E S S E S S E S S E
-----------------------------|------------------------------|
-----------------------------|------------------------------|
-----------------------------|------------------------------|
--5---5--5---5--5---5--5\----|--1---1--1---1--1---1--1---1--|


 S S E S S E S S E S S S S  S S E S S E S S E S S S S
-------------------------------|-------------------------------|
-------------------------------|---------------------------7---|
-------------------------------|-----------------------------7-|
--1---1--1---1--1---1--1---3-0-|--5---5--5---5--5---5--5-------|


 S S E S S E S S E S S E   S S E S S E S S E S S S S
------------------------------|-------------------------------|
------------------------------|---------------------------3---|
------------------------------|-----------------------------3-|
--5---5--5---5--5---5--5---5--|--1---1--1---1--1---1--1-------|


 S S E S S E S S E S S S S  S S E S S E S S E S S S S
-------------------------------|-------------------------------|
-------------------------------|---------------------------7---|
-------------------------------|-----------------------------7-|
--1---1--1---1--1---1--1---3-0-|--5---5--5---5--5---5--5-------|


 S S E S S E S S E Q    S S E S S E S S E S S S S
-----------------------------|-------------------------------|
-----------------------------|---------------------------3---|
-----------------------------|-----------------------------3-|
--5---5--5---5--5---5--8\----|--1---1--1---1--1---1--1-------|


 S S E S S E S S E S S S S  S S E S S E S S E S S S S
-------------------------------|-------------------------------|
-------------------------------|---------------------------7---|
-------------------------------|-----------------------------7-|
--1---1--1---1--1---1--1---3-0-|--5---5--5---5--5---5--5-------|


               Begin guitar solo 'til the end:

 S S S S S S S S S S S S Q    S S E S S E S S E S S S S
----------------------------------------|-------------------------------|
--9-10-12---9----10-9-------------------|---------------------------3---|
--------------12------12-10-------------|-----------------------------3-|
----------------------------12-0-12\----|--1---1--1---1--1---1--1-------|


 S S E S S E S S E S S S S  S S E S S E S S E S S S S
-------------------------------|-------------------------------|
-------------------------------|---------------------------7---|
-------------------------------|-----------------------------7-|
--1---1--1---1--1---1--1---3-0-|--5---5--5---5--5---5--5-------|


 S S E S S E S S E Q    S S E S S E S S E S S S S
-----------------------------|-------------------------------|
-----------------------------|---------------------------3---|
-----------------------------|-----------------------------3-|
--5---5--5---5--5---5--8\----|--1---1--1---1--1---1--1-------|


 S S E S S E S S E S S S S  S S E S S E S S E S S S S
-------------------------------|-------------------------------|
-------------------------------|---------------------------7---|
-------------------------------|-----------------------------7-|
--1---1--1---1--1---1--1---3-0-|--5---5--5---5--5---5--5-------|


                           P   P
 S S E S S E S S E Q    S S E S S E S S E S S S S
-----------------------------|-------------------------------|
-----------------------------|-----------------------3-----3-|
-----------------------------|-------------------------------|
--5---5--5---5--5---5--8\----|--1---1--1---1--1---1----------|


              PM PM             P   P
 S S E S S E S S E S S S S   S S E S S E S S E S S S S
---------------------------------|-------------------------------|
---------------------------------|-----------------------7-----7-|
---------------------------------|-------------------------------|
--1---1--1---1--1---1--1---0--3--|--5---5--5---5--5---5----------|


                              P
 S S E S S E S S E Q    S S E S S E S S E S S S S
-----------------------------|-------------------------------|
-----------------------------|-----------------------3-----3-|
-----------------------------|-------------------------3-----|
--5---5--5---5--5---5--8\----|--1---1--1---1--1---1----------|


                           P   P
 S S E S S E S S E E S S  S S E S S E S S E S S S S
------------------------------|-------------------------------|
------------------------------|-----------------------7-----7-|
------------------------------|-------------------------------|
--1---1--1---1--1---1--1--3-x-|--5---5--5---5--5---5----------|


                           P   P
 S S E S S E S S E Q    S S E S S E S S E S S S S
-----------------------------|-------------------------------|
-----------------------------|-----------------------3-----3-|
-----------------------------|-------------------------------|
--5---5--5---5--5---5--8\----|--1---1--1---1--1---1----------|


              PM PM             P   P
 S S E S S E S S E S S S S   S S E S S E S S E S S S S
---------------------------------|-------------------------------|
---------------------------------|-----------------------7-----7-|
---------------------------------|-------------------------------|
--1---1--1---1--1---1--1---0--3--|--5---5--5---5--5---5----------|


                           P   P
 S S E S S E S S E Q    S S E S S E S S E S S S S
-----------------------------|-------------------------------|
-----------------------------|-----------------------3-----3-|
-----------------------------|-------------------------------|
--5---5--5---5--5---5--8\----|--1---1--1---1--1---1----------|


              PM PM             P   P
 S S E S S E S S E S S S S   S S E S S E S S E S S S S
---------------------------------|-------------------------------|
---------------------------------|-----------------------7-----7-|
---------------------------------|-------------------------------|
--1---1--1---1--1---1--1---0--3--|--5---5--5---5--5---5----------|


                           P   P
 S S E S S E S S E Q    S S E S S E S S E S S S S
-----------------------------|-------------------------------||
-----------------------------|-----------------------3-----3-||
-----------------------------|-------------------------------||
--5---5--5---5--5---5--8\----|--1---1--1---1--1---1----------||



Duration 🏷Legend
---------------
W - whole
H - half
Q - quarter
E - 8th
S - 16th
. - note dotted
|-n-| - n-tuplets


Tablature 🏷Legend
----------------
L - tied note
x - dead note
g - grace note
(n) - ghost note
> - accentuded note
h - hammer on
p - pull off
/ - slide into from below or out of upwards
\ - slide into from above or out of downwards
~ - vibrato
tr - trill
TP - tremolo picking
S - slap
P - pop

Almost there ...

Sign in to get your own page with links to favourite songs and more. You are just one click away...

Login with Facebook Login with Google