Search tabs and chords

Search for song, artist or band

Log in

One click and you are in

Login with Facebook Login with Google

Why sign up and log in

Guitar Tabs Explorer
Joseph And Maia guitar tabs for Sleep acoustic

Guitar tabs with lyrics

Tuning: Standard (E A D G B E)

Difficulty: Novice

Intro:
e|---------------|---------------------|--------------------------|
B|---------------|---------------------|--------------------------|
G|-------0-------|-------0---0-0h2-0---|--------------------------|
D|---0-2---2-0---|---0-2---2-----------|0h2---------0h2-----------|
A|-3-----------3-|-3-----------------0-|----0--2--3-----3---------|
E|---------------|---------------------|--------------------------|
    A chord diagramC majorC
    sleep well
        A chord diagramA minorAm
    you Can babe

    it's Cold outside and i Can hear the rain

e|---------------|
B|---------------|
G|-------0-------|
D|---0-2---2-0---|
A|-3-----------3-|
E|---------------|

    A chord diagramC majorC
    on the rooftop
             A chord diagramA minorAm
    where i spend my lonely nights

    As the sunlight fades the Cold stands with the night

e|---------------|
B|---------------|
G|-------0-------|
D|---0-2---2-0---|
A|-3-----------3-|
E|---------------|

Chorus:
            A chord diagramA minorAm
  wont you love me
          A chord diagramC majorC
  like i know i'm loving you
            A chord diagramA minorAm
  wont you need me

  say that you do
e|---------------|---------------------|--------------------------|
B|---------------|---------------------|--------------------------|
G|-------0-------|-------0---0-0h2-0---|--------------------------|
D|---0-2---2-0---|---0-2---2-----------|0h2---------0h2-----------|
A|-3-----------3-|-3-----------------0-|----0--2--3-----3---------|
E|---------------|---------------------|--------------------------|

   A chord diagramC majorC
   when you open
        A chord diagramA minorAm
   your eyes babe

   the Colour lives and the darkness fades away


e|---------------|
B|---------------|
G|-------0-------|
D|---0-2---2-0---|
A|-3-----------3-|
E|---------------|


  A chord diagramC majorC
 through the narrow streets
      A chord diagramA minorAm
 somewhere down the seas

 we Can live our days to the City's lullaby


e|---------------|
B|---------------|
G|-------0-------|
D|---0-2---2-0---|
A|-3-----------3-|
E|---------------|


Chorus:
            A chord diagramA minorAm
  wont you love me
          A chord diagramC majorC
  like i know i'm loving you
            A chord diagramA minorAm
  wont you need me

  say that you do

e|---------------|---------------------|--------------------------|
B|---------------|---------------------|--------------------------|
G|-------0-------|-------0---0-0h2-0---|--------------------------|
D|---0-2---2-0---|---0-2---2-----------|0h2---------0h2-----------|
A|-3-----------3-|-3-----------------0-|----0--2--3-----3---------|
E|---------------|---------------------|--------------------------|


            A chord diagramA minorAm
  wont you love me
          A chord diagramC majorC
  like i know i'm loving you
            A chord diagramA minorAm
  wont you need me

  say that you do


 Outro:
e|---------------|---------------------|--------------------------|
B|---------------|---------------------|--------------------------|
G|-------0-------|-------0---0-0h2-0---|--------------------------|
D|---0-2---2-0---|---0-2---2-----------|0h2---------0h2-----------|
A|-3-----------3-|-3-----------------0-|----0--2--3-----3---------|
E|---------------|---------------------|--------------------------|




************************************

| h   HAmmer-on

************************************

Almost there ...

Sign in to get your own page with links to favourite songs and more. You are just one click away...

Login with Facebook Login with Google