Log in

One click and you are in

Login with Facebook Login with Google

Why sign up and log in

Guitar Tabs Explorer
Sass Jordan guitar tabs for High road easy

Guitar tabs

Here's the acoustic intro and electric verse/chorus to "High Road Easy" by
Sass Jordan from her new disk "Rats".  If anyone has the lead fills and or

solo, could you please post it.
High Road Easy - Sass Jordan


Intro - Acoustic

------------------0--------------|-----------------0----------------------|
---------3-----------------------|--------3-------------------------------|
------2--------2------4--4--4--4-|-----2--------2----------------------4--|
---0--------2---------4--4--4--4-|--0--------2--------2-H-4--2-P-0-----4--|
----------------------2--2--2--2-|----------------------------------2--2--|
---------------------------------|----------------------------------------|
Play twice.


verse/chorus - Electric

------------------------------|-----------------------------------|
------------------------------|-----------------------------------|
---7-7--9-9-------------------|--7-7--9-9-------------------------|
---7-7--9-9---/9~~--7--7-H-9--|--7-7--9-9-------------------------|
---5-5--7-7-------------------|--5-5--7-7--7-H-9---7--5-----------|
------------------------------|-------------------------7--7------|
Repeat this a whole bunch.

Basic chord progression - d e b.  Easy.

--

+------------------------------------+----------------------------------------+
|Jon Cooke - cookej@cpsc.ucalgary.ca |   ___    __                            |
|Department of Computer Science      |  /   \__/  \                           |
|University of Calgary	             | |          /             '''           |
|Alberta, Canada                     | |   [:|:===============] :::}          |
+------------------------------------+ | o o __   \             ,,,           |
|"What is understood,                |  \___/  \__/                           |
| need not be discussed."            |                                        |
+------------------------------------+----------------------------------------+

Almost there ...

Sign in to get your own page with links to favourite songs and more. You are just one click away...

Login with Facebook Login with Google