Log in

One click and you are in

Login with Facebook Login with Google

Why sign up and log in

Guitar Tabs Explorer
Jordan Rakei guitar tabs for Midnight mischief tom misch remix

Midnight Mischief Tom Misch Remix tab by Jordan Rakei

Jordan Rakei guitar tabs for Midnight mischief tom misch remix

Guitar tabs

Tuning: Standard (E A D G B E)

Key: A chord diagramG MajorG

Difficulty: Intermediate
Solo:
e|------------------------12-14-12-14b15br14b15br14b15------15/19\18\17~----|
B|-------------------12-15---------------------------------------------------|
G|--------------12-14--------------------------------------------------------|
D|---------12-14-------------------------------------------------------------|
A|----12-14------------------------------------------------------------------|
E|--15-----------------------------------------------------------------------|

e|--17\15p14-15-17-15-14-12--------------------------------------------------|
B|-------------------------15-13-12--15-13-12--------------------------------|
G|---------------------------------14--------14-12h14/16-12------------------|
D|----------------------------------------------------------14-14~-12--------|
A|---------------------------------------------------------------------------|
E|---------------------------------------------------------------------------|

e|---------------------------------------------------------------------------|
B|---------------------------------------------------------------------------|
G|--------12--12~----14b14.5br14p12------12~-14-------12/14~~-14\12~~--------|
D|--12/14---14---14----------------14-12-------------------------------------|
A|---------------------------------------------------------------------------|
E|---------------------------------------------------------------------------|


************************************

| b   Bend
| br  Bend release
| /   Slide up
| \   Slide down
| ~   Vibrato
| p   Pull-off
| h   Hammer-on

************************************

Almost there ...

Sign in to get your own page with links to favourite songs and more. You are just one click away...

Login with Facebook Login with Google