Guitar Tabs Explorer
Jordan Mackampa guitar chords for Yours to keep

Yours To Keep chords


Be the first to rate

Yours To Keep chords by Jordan Mackampa

Guitar chords with lyrics

Print

Tuning: EADGBE

Intro:
          F# chord diagramF#F#                  A# chord diagramA#A#                               B# chord diagramB#B#
B|--------------------------------------------------------------------------------------------|
B|--------------------------------------------------------------------------------------------|
G|----3-----3----3---3-----3---3---3---3---6---6---5----5---5----5---5-----5---5----5---5-----|
D|--------------------------------------------------------------------------------------------|
A|--------------------------------------------------------------------------------------------|
E|--2----2----2----2----2----2---2---2---6---6---4---4---4---4-----4----4-----4---4----4------|

          D# chord diagramD#D#          C# chord diagramC#C#                  A# chord diagramA#A#               B# chord diagramB#B#
B|--------------------------------------------------------------------------------------------|
B|--------------------------------------------------------------------------------------------|
G|----11-----11----10---10----10 ---10---6---6------5---5----5---5----5---5-----5---5---------|
D|--------------------------------------------------------------------------------------------|
A|--------------------------------------------------------------------------------------------|
E|--11----11----9----9----9----9---2---6---6-----4---4---4---4-----4----4-----4---4-----------|

Verse 1:
F# chord diagramF#F#   A# chord diagramA#A#   B# chord diagramB#B#
Plant a seed
F# chord diagramF#F#        A# chord diagramA#A#      B# chord diagramB#B#
We'll watch it grow
F# chord diagramF#F# D# chord diagramD#D# C# chord diagramC#C# A# chord diagramA#A# B# chord diagramB#B#
Paper hearts
F# chord diagramF#F#  D# chord diagramD#D#  C# chord diagramC#C#  A# chord diagramA#A#      B# chord diagramB#B#
Weren't meant to fold

Bridge:
D# chord diagramD#D#  C# chord diagramC#C#  A# chord diagramA#A#      B# chord diagramB#B#
Ooh, ooh, ooh, ooh
D# chord diagramD#D#  C# chord diagramC#C#  A# chord diagramA#A#    B# chord diagramB#B#
Ooh, ooh, ooh

Verse 2:
F# chord diagramF#F#        A# chord diagramA#A#             B# chord diagramB#B#
Autumn leaves , turn to gold
F# chord diagramF#F#             A# chord diagramA#A#         B# chord diagramB#B#
We'll try to pass side-by-side
F# chord diagramF#F#           A# chord diagramA#A#              B# chord diagramB#B#
And form a link through our hands
F# chord diagramF#F#       A# chord diagramA#A#                B# chord diagramB#B#
For I'm yours and you are mine

Chorus:
F# chord diagramF#F#                 A# chord diagramA#A#                    B# chord diagramB#B#
I'll write your name on the bottom of my shoes
F# chord diagramF#F#            A# chord diagramA#A#                    B# chord diagramB#B#
Just so you know that I'm yours to keep
F# chord diagramF#F#               A# chord diagramA#A#                    B# chord diagramB#B#
I'll write your name on the bottom of my shoes
D# chord diagramD#D#           C# chord diagramC#C#  A# chord diagramA#A#                  B# chord diagramB#B#
Just so you know that I'm yours to keep

Verse 3:
D# chord diagramD#D#      C# chord diagramC#C#            A# chord diagramA#A#    B# chord diagramB#B#
For I'm yours and you are mine
D# chord diagramD#D#      C# chord diagramC#C#            A# chord diagramA#A#      B# chord diagramB#B#
We'll form a link through our hands
D# chord diagramD#D#      C# chord diagramC#C#            A# chord diagramA#A#      B# chord diagramB#B#
For I'm yours and you are mine
D# chord diagramD#D#      C# chord diagramC#C# A# chord diagramA#A#  B# chord diagramB#B#
Mine, oh, mine

Chorus:
F# chord diagramF#F#                 A# chord diagramA#A#                    B# chord diagramB#B#
I'll write your name on the bottom of my shoes
D# chord diagramD#D#      C# chord diagramC#C#            A# chord diagramA#A#            B# chord diagramB#B#
Just so you know that I'm yours to keep
F# chord diagramF#F#                 A# chord diagramA#A#                    B# chord diagramB#B#
I'll write your name on the bottom of my shoes
F# chord diagramF#F#                 A# chord diagramA#A#                  B# chord diagramB#B#
Just so you know that I won't let you down

Chorus:
F# chord diagramF#F#                 A# chord diagramA#A#                    B# chord diagramB#B#
I'll write your name on the bottom of my shoes
F# chord diagramF#F#                 A# chord diagramA#A#                B# chord diagramB#B#

Comment this song and these guitar chords

Do you have corrections, comments on the guitar chords, thoughts about the song or a message to the author? Write them below.