Log in

One click and you are in

Login with Facebook Login with Google

Why sign up and log in

Guitar Tabs Explorer
Jontha Links bass tabs for Pretty carolina

Bass tabs

Bass riff:

G|-----------------------------------------|
D|-----------0-4-0-------------------------|
A|-2--2-2-4---------0--0-0--0--0-0---------|
E|-----------------------------------------|

G|-----------------------------------------|
D|-----------0-4-0-------------------------|
A|-2--2-2-4---------0--0-0--4--4-4---------|
E|-----------------------------------------|

I’m pretty sure this riff just repeats through
the whole song!

Almost there ...

Sign in to get your own page with links to favourite songs and more. You are just one click away...

Login with Facebook Login with Google