Log in

One click and you are in

Login with Facebook Login with Google

Why sign up and log in

Guitar Tabs Explorer
Keziah Jones guitar chords for Wounded lovers son

Guitar chords

special thanx to Mr carey
Title: wounded lovers son
Album: liquid sunshine

easy to play, provides a lot of fun!!
check this out
INTRO.    RIFF A chord diagramA majorA

  A chord diagramE minorEm      A chord diagramA majorA                       A chord diagramD7D7                      A chord diagramBB

E--------|-----5--5---x-------x-x|8----8xx8---x----x-x8x8|-----7--7---x--------
B--------|-----5x-5---x---x-x-x-x|7----7xx7---x----xxx7x7|-----7x-7---x---x-x--
G--------|6----6xx6---x---x-x-x-x|7----7xx7---x----xxx7x7|8----8xx8---x---x-x--
D-2/x/x/x|7----7xx7---x---x-x----|------------x----xx----|9----9xx9---x---x-x--
A-2/x/x/x|7-----xx7-------x-x----|-----------------------|9-----xx9-------x-x--
E-0/x/x/x|5-------5--------------|-----------------------|7-------7------------
  0&.&.&.&0&.&.&.&0&.&.&.&0&.&.&.&0&.&.&.&0&.&.&.&0&.&.&.&0&.&.&.&0&.&.&.&0&.&


      A chord diagramD MajorD       A chord diagramE MajorE

E----|-----------------------|-------------------------------------------------
B-x-x|7------x9---9---x-x-x\-|-------------------------------------------------
G-x-x|7---x/xx9---9---x-x-x\-|-------------------------------------------------
D-x-x|7---x/xx9---9---x-x-x\-|-------------------------------------------------
A----|5---x/xx7---7---x-x-x\-|-------------------------------------------------
E----|-----------------------|-------------------------------------------------
  .&.&0&.&.&.&0&.&.&.&0&.&.&.&



   RIFF A chord diagramBB

   A chord diagramFF                       A chord diagramE MajorE                       A chord diagramA majorA

E-|-----------------------|-----------------------|----------------------------
B-|10------10--10--x-x-x--|9-------9---9---x-x-x--|----------------------------
G-|10--x-xx10--10--x-x-x--|9---x-xx9---9---x-x-x--|6---------------------------
D-|10--x-xx10--10--x-x-x--|9---x-xx9---9---x-x-x--|7---------------------------
A-|8---x-xx8---8---x-x-x--|7---x-xx7---7---x-x-x--|7---------------------------
E-|-----------------------|-----------------------|5---------------------------
   0&.&.&.&0&.&.&.&0&.&.&.&0&.&.&.&0&.&.&.&0&.&.&.&0.

play:

(0:00) intro
(0:005) riff A chord diagramA majorA 8 times
(1:07) riff A chord diagramBB 4 times
(1:24) riff A chord diagramA majorA 6 times
(2:05) riff A chord diagramBB 8 times
(3:11) end

Keziah's fans? Email me

Felmas214@yahoo.com

Almost there ...

Sign in to get your own page with links to favourite songs and more. You are just one click away...

Login with Facebook Login with Google