Log in

One click and you are in

Login with Facebook Login with Google

Why sign up and log in

Guitar Tabs Explorer
Danko Jones tabs for I cant handle moderation

Guitar tabs

from Below The Belt


INTRO
e--------------------|
B--------------------|
G-----7--------7-----|
D--5--7--7--5--7--7--|
A--5--5--7--5--5--7--|
E--3-----5--3-----5--|

VERSE            x9
e-----------------|
B-----------------|
G-----------------|
D-----------------|
A----3-6-3---3-3--|
E--6-------6------|


CHORUS                                   x4
e-----------------------------------------|
B-----------------------------------------|
G------------77777777---------------------|
D--55555555--77777777--77777777-77777777--|
A--55555555--55555555--77777777-77777777--|
E--33333333------------55555555-55555555--|

1:00                             x4
e-------------------------------|------|
B-------------------------------|------|
G-----------------5-5-5-5-5-5---|------|
D-------------------------------|--2~--|
A----3-6-3---3-3----------------|--2~--|
E--6-------6--------------------|--0~--|

1:31
e------------------------------------------------------------------------|
B------------------------------------------------------------------------|
G--5--555555555555-5br-3--------------5-555555555555-5br-3---------------|
D--5---------------------5-5555555555-5--------------------5-5555555555--|
A--3-----------------------5555555555-3----------------------5555555555--|
E--------------------------3333333333------------------------3333333333--|

continued from above
e---------------------------------------------------------|
B---------------------------------------------------------|
G--5555555555---------------------------------------------|
D--5555555555-5555555555-7777777777-55555555555555555555--|
A--3333333333-5555555555-7777777777-55555555555555555555--|
E-------------3333333333-5555555555-33333333333333333333--|

2:03
e-----------------------------------------------------------------------------|
B-----------------------------------------------------------------------------|
G--55555555--88888888---------------------55555555-88888888-------------------|
D--55555555--88888888--55555555-22222222--55555555-88888888-5555555555555555--|
A--33333333--66666666--55555555-22222222--33333333-66666666-5555555555555555--|
E----------------------33333333-00000000--------------------3333333333333333--|

2:35
e--1515151515151515-14141414-10101010-99999999-5555-0000--|
B---------------------------------------------------------|
G---------------------------------------------------------|
D---------------------------------------------------------|
A---------------------------------------------------------|
E---------------------------------------------------------|

continued from above

e--1515151515151515-14141414-10101010-9-10-12121212-5555-0000--|
B--------------------------------------------------------------|
G--------------------------------------------------------------|
D--------------------------------------------------------------|
A--------------------------------------------------------------|
E--------------------------------------------------------------|


OUTRO
e-------------------------------|
B-------------------------------|
G------7~----------7~-----------|
D--5~--7~--7~--5~--7~--7~--5~~--|
A--5~--5~--7~--5~--5~--7~--5~~--|
E--3~------5~--3~------5~--3~~--|

Any corrections please comment
Thanks

Almost there ...

Sign in to get your own page with links to favourite songs and more. You are just one click away...

Login with Facebook Login with Google