Log in

One click and you are in

Login with Facebook Login with Google

Why sign up and log in

Guitar Tabs Explorer
Nick Jonas bass tabs for Introducing me

Bass tabs

Key: B


Intro: No bass still. Only the guitar plays.

Verse 1: (0:05-0:25)
G|----------------------|------------------------|----------------------------------|
D|----------------------|------------------------|----------------------------------|
A|-14-----13-----11-----|-9---7-----7-9/--14-----|-----14--13-----11------9-7-----6-|
E|----------------------|------------------------|-14-------------------------------|



Pre-chorus 1: (0:26-0:35)
G|----------------------|--------------------9---\-|
D|----------------------|-----------------9--------|
A|-4--------4--6--------|-6--8------7--------------|
E|-------4-----------7--|--------------------------|


Chorus 1: (0:38-1:07)
G|-----------------|-----------------|-----------------|------------------|
D|-----------------|-----------------|-----------------|------------------|
A|-2---2---2---2---|-1---1---1---1---|-----------------|------------------|
E|-----------------|-----------------|-4---4---4---4\--|-0---0---0---0--0-|

G|-------------------|-------------------|-------------------|------------------|
D|-------------------|-------------------|-------------------|---------2---2--1-|
A|-2---2---2---2--2--|-1---1---1---1--1--|-------------------|------------------|
E|-------------------|-------------------|-4---4---4---4--4--|-0---0------------|

G|-------------------|-----------------|-------------------|---------------|
D|-------------------|-----------------|-------------------|---------------|
A|-4---4---4------4--|-6---6---6---6---|-7---7---7---7--7--|-9---9---9---\-|
E|-------------4-----|-----------------|-------------------|---------------|

Post-chorus 1: (1:08-1:19)
G|-----------------|-------------------|-------------------|----------------------|
D|-----------------|-------------------|-------------------|----------------------|
A|-2---2---2---2---|-1---1---1---1--1--|-------------------|-----------------2--2-|
E|-----------------|-------------------|-4---4---4---4--4--|-0---0---2---2--------|


Verse 2: (1:23-1:48)
G|-------------------|-------------------|-----------------|-------------------|
D|-------------------|-------------------|-----------------|-------------------|
A|-2---2---2---2--2--|-1---1---1---1--1--|-----------------|-------------------|
E|-------------------|-------------------|-4---4---4---4---|-0---0---0---0--0--|

G|-------------------|-------------------|-----------------|-------------------|
D|-------------------|-------------------|-----------------|---------2---2--1--|
A|-2---2---2---2--2--|-1---1---1---1--1--|-----------------|-------------------|
E|-------------------|-------------------|-4---4---4---4\--|-0---0-------------|


Pre-chorus 2:
G|-------------------|-------------------|-----------------|-------------------|
D|-------------------|-------------------|-3---3---3---3---|-2---2---2---2-\---|
A|-4---4---4---4--4--|-6---6---6--6----6-|-----------------|-------------------|
E|-------------------|--------------7----|---------1-------|-----------------0-|


Chorus 2: (1:50-2:15)
G|-------------------|-------------------|-------------------|------------------|
D|-------------------|-------------------|-------------------|-2---2---2---2----|
A|-2---2---2---2--2--|-1---1---1---1--3--|----------------6--|----------------1-|
E|-------------------|-------------------|-4---4---4---4-----|------------------|

G|-------------------|-----------------|-----------------|-------------------|
D|-------------------|-----------------|-----------------|-------------------|
A|-2---2---2---2--2--|-1---1---1---1---|-----------------|-------------------|
E|-------------------|-----------------|-4---4---4---4---|-0---0---0---0--0--|

G|-------------------|-------------------|-------------------|----------------|
D|-------------------|-------------------|-------------------|----------------|
A|-4---4---4------4--|-6---6---6------6--|-7---7---7------7--|-9---9---9---9\-|
E|-------------4-----|-------------7-----|-------------7-----|----------------|


Bridge: (2:16-2:24)
G|-------------------|-------------------|-------------------|-------------------|
D|---------6---6-----|-------------------|-------------------|-------------------|
A|----------------9--|-7---7---7---7--7--|-4---4---4---4--6--|-7---7---7---7\----|
E|-4---4-------------|-------------------|-------------------|-----------------0-|


Chorus 3: (2:27-2:51)
G|-----------------|-----------------|-------------------|-------------------|------------------|
D|-----------------|---------2-------|-------------------|-------------------|------------------|
A|-2-------1-------|-----------------|-2---2---2---2--2--|-1---1---1---1--3--|------------------|
E|-----------------|-4---------------|-------------------|-------------------|-4---4---4---4--4-|

G|-------------------|-------------------|-------------------|-----------------|--------------|
D|-------------2--1--|-------------------|-------------------|-----------------|--------------|
A|-------------------|-4---4---4------4--|-6---6---6------6--|-7---7---7---7---|-9---9-9-9--\-|
E|-0---0---0---------|-------------4-----|-------------7-----|-----------------|--------------|


Outro: (2:52-3:01)
G|-------------------|-------------------|-------------------|-------------------|
D|-------------------|-------------------|-------------------|-------------------|
A|-2---2---2---2--2--|-1---1---1---1--1--|-------------------|-----------------2-|
E|-------------------|-------------------|-4---4---4---4--4--|-0---0---2---2-----|


☠☠☠☠☠☠☠☠☠☠☠☠☠☠☠☠☠☠☠☠☠☠☠☠☠☠☠☠☠☠☠☠☠☠☠☠

| /  Slide up
| \  Slide down

☠☠☠☠☠☠☠☠☠☠☠☠☠☠☠☠☠☠☠☠☠☠☠☠☠☠☠☠☠☠☠☠☠☠☠☠

Almost there ...

Sign in to get your own page with links to favourite songs and more. You are just one click away...

Login with Facebook Login with Google