Guitar Tabs Explorer
Jonas Brothers bass tabs for Sucker

Sucker bass tab


5 / 5 [1 vote]

Sucker bass tab by Jonas Brothers

Bass tabs

Print

Tuning: Standard (E A D G)

Difficulty: Novice

Play with pick, palm mute in various parts.

Verses: BASS STARTS around 8 seconds in

G|---------------|----------------|-----------------------------------------|
D|---------------|----------------|-----------------------------------------|
A|-\-4-4--7-7----|-4-4--7-7-------|-4-4--7-7--------------------------------|
E|-------------7-|----------7-4-4-|----------7-7----------------------------|

Pre-Chorus and 1st Chorus:

G|--------------------------------------------------------------------------|
D|--------------------------------------------------------------------------|
A|-4-4----------------------------------------------------------------------|
E|-----2-2--7-7-0-0-5-5-5-5-4-4---------------------------------------------|

Verses:

G|---------------|----------------|-----------------------------------------|
D|---------------|----------------|-----------------------------------------|
A|--4-4--7-7-----|4-4--7-7--------|-4-4--7-7--------------------------------|
E|-------------7-|----------7-4-4-|----------7-7----------------------------|

2nd Chorus:

G|--------------------------------------------------------------------------|
D|--------------------------------------------------------------------------|
A|-4-4-4-4------------------------------------------------------------------|
E|---------2-2-2-2-7-7-7-7-0-0-0-0-5-5-5-5-5-5-4-4-4-4----------------------|

G|----------------------------------|---------------------------------------|
D|----------------------------------|---------------------------------------|
A|-4-4------------------------------|-4-4-----------------------------------|
E|-----2-2-7-7--0-0--5-5-5-5---4-4--|-----2-2-7-7--0-0-5-5-5-5-4-4----------|

Bridge/Instrumental Break:

G|--------------|----------------|------------------------------------------|
D|--------------|----------------|------------------------------------------|
A|--4-4--7-7----|-4-4--7-7-------|-4-4--7-7---------------------------------|
E|-------------7|----------7-4-4-|----------7-7-----------------------------|

Final Chorus:

G|--------------------------------------------------------------------------|
D|--------------------------------------------------------------------------|
A|-4-4-4-4------------------------------------------------------------------|
E|----------2-2-2-2-7-7-7-7-0-0-0-0-5-5-5-5-5-5-4-4-4-4---------------------|

G|----------------------------------|---------------------------------------|
D|----------------------------------|---------------------------------------|
A|-4-4------------------------------|-4-4-----------------------------------|
E|-----2-2-7-7--0-0--5-5-5-5---4-4--|------2-2-7-7--0-0-5-5-5-5-4-4---------|

Outro:

G|--------------|----------------|------------------------------------------|
D|--------------|----------------|------------------------------------------|
A|--4-4--7-7----|-4-4--7-7-------|-4-4--7-7---------------------------------|
E|-------------7|----------7-4-4-|----------7-7-----------------------------|


************************************

| \   Slide down

************************************