Log in

One click and you are in

Login with Facebook Login with Google

Why sign up and log in

Guitar Tabs Explorer
Jonas Brothers bass tabs for Love bug

Bass tabs

Hey there! this is the lovebug tab for bass. RATE!

this is the live version, but the cd version just doesn't have the little bridge before
heavy part.
ENJOY IT!

“LOVEBUG”
PRE-VERSE – After the first chorus, while little guitar riff is going on
G|-------------------------|
D|-------------------------|
A|---9---7-7---77-6---9----|
E|-7---5-----7------9------|


VERSE
G|-----------------------|
D|-----------------------|
A|---9---7-7-------------| x3
E|-7---5-----7-00-2-4-6--|

G|-------------------------|
D|-------------------------|
A|---9---7-7---77-6---9----|
E|-7---5-----7------9------|


CHORUS
G|------------------------------------------|
D|------------------------------------------|
A|-----6---------7-6------------6-----------|
E|-0-------5---0-----9-7-5--0-------5---0---|


BRIDGE
G|---------------------------------------------------------|
D|---------------------------------------------------------|
A|-9--7-------9--7—9h11----9--7—-11~-11/12\11~---9--7------|
E|-------7---------------------------------------------7---|


PRE-LAST CHORUS
G|---------------------------------------------------------|
D|---------------------------------------------------------|
A|---9---7-7---77-6---9----9---7-7---5h77-5h77-5h77-5h7\---|
E|-7---5-----7------9----7---5-----------------------------|


SOLO/HEAVY CHORUS
G|-----------------------------------------------------|
D|-----------------------------------------------------|
A|-777-7-7-777--666-6-6-666----------------------------|x2
E|--------------------------555-5-5-555--000-0-0-000---|

G|-------------------------|
D|-------------------------|
A|-77----77----------------|
E|----55----xxxxxx---------|


OUTRO
G|-----------------------------------------------|
D|-----------------------------------------------|
A|-----------------------------------------------|

Almost there ...

Sign in to get your own page with links to favourite songs and more. You are just one click away...

Login with Facebook Login with Google