Log in

One click and you are in

Login with Facebook Login with Google

Why sign up and log in

Guitar Tabs Explorer
Jonas Brothers bass tabs for Kids of the future

Kids Of The Future bass tab - Jonas Brothers

Jonas Brothers bass tabs for Kids of the future

Bass tabs

-------------------------------------------------------------------------------
			   Kids of the future - jonas brothers
-------------------------------------------------------------------------------

Tabbed By : Valerie L
e-mail: iloled@yahoo.com

Tuning: standard
Verse
G|--------------------------------------------------------------------|
D|-------------------------------------------------11111111-33333333--|
A|--------------------------------------------------------------------|
E|33333333333333333333333333333333-111111111111111--------------------|


Pre-Chorus
G|----------------------------------|
D|----------------------------------|
A|3333333333333333-5555555555555555-|
E|----------------------------------|


Chorus "We're the kids of the future..."
G|---------------55-77-----------------------------------|
D|------55-77-88-------88--------55-88-55----77-1010-77--|
A|66-88-------------------x2--66---------88--------------|
E|-------------------------------------------------------|

Pre-Verse
G|-----------------|
D|-5-5-5-5-5-5-5-5-|
A|-----------------|
E|-----------------|

Verse x2

Pre-Chorus x1

Chorus x2


bridge
goes straight into bridge after chorus "na, na, na..."
G|-----------------------------------------------------------------------------|
D|55555555----------33333333-11111111------------------33333333-111111111111-33|
A|---------11111111---------------------------11111111-------------------------|
E|-----------------------------------33333333----------------------------------|


Verse x2

Pre-Chorus x1

Chorus x1

Bridge x1

Breakdown
G|---------------------------|
D|-5~---1~-----------1~------|
A|-----------3~----------3~--|
E|---------------3~----------| x2


Outro
G|-------------------------------------------|
D|---------11111111--------------------------|
A|------------------3333333333333333-x2------|
E|33333333-------------------------------3~--|

Almost there ...

Sign in to get your own page with links to favourite songs and more. You are just one click away...

Login with Facebook Login with Google