Log in

One click and you are in

Login with Facebook Login with Google

Why sign up and log in

Guitar Tabs Explorer
Jonas Brothers bass tabs for Its on

Bass tabs

Key: Bm


Intro: (0:05-0:09)
G|---------------------|-----------------------|
D|-12-14---14--14---12-|-14---14--14---12-14-\-|
A|---------------------|-----------------------|
E|---------------------|-----------------------|
B|---------------------|-----------------------|

Verse 1: (0:11-0:33)
G|----------------------|--------------------------|-------------------|-------------|
D|-12-14\---------5-7---|-7--7---7/-12--12--11-11--|-------------------|-------------|
A|------------7-7-------|--------------------------|-7---7--7---5--7---|-7--7---5--7-|
E|----------------------|--------------------------|-------------------|-------------|
B|----------------------|--------------------------|-------------------|-------------|

G|-----------------------|--------------------|---------------|---------------|
D|----------5-7---7--7---|-7/-12--12--11--11--|---------------|---------------|
A|-7------7--------------|--------------------|-7---7--7---5--|-7---7--7---7/-|
E|-----------------------|--------------------|---------------|---------------|
B|-----------------------|--------------------|---------------|---------------|


Chorus 1: (0:34-1:06)
G|----------------------------|------------------------|-----------------------|-----------------------|
D|----------------------------|---5--5--7--7-----------|-----------------------|-----------------5-----|
A|-12--12---------------------|-7-------------7---7----|-------5--5--7---7--7--|-3---5---7---5-7---7-5-|
E|---------10--10--12---12----|------------------------|-3--3------------------|-----------------------|
B|----------------------------|------------------------|-----------------------|-----------------------|

G|--------------------------------|------------------------|--------------------------|---------------|
D|--------------------------------|------------------------|--------------------------|------------3/-|
A|-10--10--12--12-----------------|-5--5-------------------|-3--3--5--5---------------|---------------|
E|-----------------12---12--12----|-------5--5--0---0----0-|-------------5---5--5---5-|-3--3----------|
B|--------------------------------|------------------------|--------------------------|-------3--3----|

G|--------------------------|------------------------|-------------------|------------------|
D|-7-7-7-7-7-7-7-7-7\----12-|-14---14--14---12--14---|-14--14---12--14---|-14--14---12--14\-|
A|--------------------------|------------------------|-------------------|------------------|
E|--------------------------|------------------------|-------------------|------------------|
B|--------------------------|------------------------|-------------------|------------------|


Verse 2: (1:08-1:33)
G|--------------------|---------------|---------------------|-------------------|--------------|
D|------------------5-|-7---7--7---7/-|-12--12---11-11-11-\-|-------------------|--------------|
A|-7------7-----7-7---|---------------|---------------------|-7---7--7---5--7---|-7--7---5--7\-|
E|--------------------|---------------|---------------------|-------------------|--------------|
B|--------------------|---------------|---------------------|-------------------|--------------|

G|-----------------------|---------------------|---------------|---------------|
D|----------5-7---7--7---|-7/-12--12--11--11---|---------------|---------------|
A|-7------7--------------|---------------------|-7---7--7---5--|-7---7--7---7/-|
E|-----------------------|---------------------|---------------|---------------|
B|-----------------------|---------------------|---------------|---------------|


Chorus 2: (1:34-2:05)
G|------------------------------|------------------------|----------------------|-------------------------|
D|------------------------------|---5--5--7--7-----------|----------------------|-------------------5-----|
A|-12-12-12---------------------|-7-------------7---7----|-------5--5--7----7---|-3---5-5-5-7---5-7---7-5-|
E|-----------10--10--12---12----|------------------------|-3--3-----------------|-------------------------|
B|------------------------------|------------------------|----------------------|-------------------------|

G|----------------------------|---------------------|--------------------------|---------------|
D|----------------------------|---------------------|--------------------------|------------3/-|
A|-10--10--12--12-------------|-5--5----------------|-3-3-3--5--5--------------|---------------|
E|-----------------12---12----|-------5--5--0---0---|--------------5----5----5-|-3--3----------|
B|----------------------------|---------------------|--------------------------|-------3--3----|

G|--------------------------|------------------------|------------------------------------|
D|-7-7-7-7-7-7-7-7-7\----12-|-14---14--14---12--14---|-14--14---12--14---14--14---12--14\-|
A|--------------------------|------------------------|------------------------------------|
E|--------------------------|------------------------|------------------------------------|
B|--------------------------|------------------------|------------------------------------|


Bridge: (2:07-2:51)
G|----------------------|------------------------------|---------------|-----------------|
D|--------------------5-|-7---7--7---7/-12--12--11-11--|---------------|-----------------|
A|-10\------7-----7-7---|------------------------------|-7---7--7---5--|-7---7--7---5-7/-|
E|----------------------|------------------------------|---------------|-----------------|
B|----------------------|------------------------------|---------------|-----------------|

G|--------------------------|--------------------------------|---------------------------|
D|----------5-7---7--7---7/-|-12--12--11-11------------------|-14-14-14-14-14-14-14-14-\-|
A|-7------7-----------------|---------------7-7-7-7-7-7-7-7/-|---------------------------|
E|--------------------------|--------------------------------|---------------------------|
B|--------------------------|--------------------------------|---------------------------|

G|--------------14-\----|-12--12--11-11----------|-12h-14--16--12h14-----------|------------------------|
D|----14-\--------------|----------------14-\----|--------------------14--\----|------------------------|
A|-7/-------------------|------------------------|-----------------------------|-5-5--6--7-\-----7h5----|
E|----------------------|------------------------|-----------------------------|----------------------7-|
B|----------------------|------------------------|-----------------------------|------------------------|


Guitar solo: (2:52-2:58)
G|----------------------|-------------------------|------------------------|
D|----------------------|-------------------------|-5-5-7-7-9-9-12-12-14-\-|
A|----------------------|-------------2-2-5-5-7-7-|------------------------|
E|-5---5--5---5-3-3-3-3-|-2-2-2-2-0-0-------------|------------------------|
B|----------------------|-------------------------|------------------------|


Chorus 3: (3:24-3:57)
G|----------------------------|------------------------|----------------------|-----------------------|
D|----------------------------|---5--5--7--7-----------|----------------------|-----------------5-----|
A|-12--12---------------------|-7-------------7---7----|-------5--5--7---7----|-3---5---7---5-7---7-5-|
E|---------10--10--12---12----|------------------------|-3--3-----------------|-----------------------|
B|----------------------------|------------------------|----------------------|-----------------------|

G|-----------------|------------------------------------|------------------------|---------------|
D|-----------------|------------------------------------|------------------------|------------3/-|
A|-10--10--12--12--|-------------5--5-------------------|-3--3--5--5-------------|---------------|
E|-----------------|-12----12----------5--5--0---0----0-|-------------5----5---5-|-3--3----------|
B|-----------------|------------------------------------|------------------------|-------3--3----|

G|--------------------------|---------------------------------|-------------------------------|
D|-7-7-7-7-7-7-7-7-7\----12-|-14---14--14---12-12h14-14-14-14-|-12h14-14-14-14-12h14-14-14-14-|
A|--------------------------|---------------------------------|-------------------------------|
E|--------------------------|---------------------------------|-------------------------------|
B|--------------------------|---------------------------------|-------------------------------|

G|-------------------------------------|
D|-12h14-14-14-14-12h14-14-14-14-14--\-|
A|-------------------------------------|
E|-------------------------------------|
B|-------------------------------------|


| \ Slide down
| / Slide up
| h Hammer-on

Almost there ...

Sign in to get your own page with links to favourite songs and more. You are just one click away...

Login with Facebook Login with Google