Log in

One click and you are in

Login with Facebook Login with Google

Why sign up and log in

Guitar Tabs Explorer
Jonas Brothers bass tabs for Inseparable

Bass tabs

-------------------------------------------------------------------------------
			  Inseparable - Jonas Brothers
-------------------------------------------------------------------------------

Tabbed By: Valerie L.
e-mail: iloled@yahoo.com

Tuning: standard
Intro
G|------------------------------------------------------------------|
D|------------------------------------------------------------------|
A|-------------------4-4444-6666-8888------------------666666-4444-3|
E|1111111-333-444-4-------------------4-4444-6666-8888--------------|


Verse
G|------------------------------------------------------------------------|
D|------------------------------------------------------------------------|
A|-----------------44444444444444h6--------------------66666666-4444-3333-|
E|1111111111111111--------------------4444444444444444--------------------|x2


Chorus
G|---------------------------------------------------------------------|
D|---------------------------------------------------------------------|
A|1111111111111111-----------------------------------4444444444444444--|
E|-----------------1111111111111111-2222222222222222-------------------|

G|-------------------------------------------------------------------------|
D|-------------------------------------------------------------------------|
A|1111111111111111-----------------------------------4444444444444444-6666-|
E|-----------------1111111111111111-2222222222222222-----------------------|

Verse x2

Chorus x1


Bridge "I would give it up.."
G|------------------------------------------------------------------|
D|------------------------------------------------------------------|
A|-----------------44444-6666-8888------------------666666-4444-3333|
E|1111111-333-4444-------------------44444-6666-8888----------------| x2


Outro Chorus
G|-----------------------------------------------------------------------------------|
D|---------------------------------------------------------------(11's)111111111111--|
A|11111111---------------------------------------------------------------------------|
E|---------1111111111111111-22222222/141414141414141414-99999999---------------------|

G|---------------------------------------------------------------------|
D|---------------------------------------------------------------------|
A|1111111111111111-----------------------------------4444444444444444--|
E|-----------------1111111111111111-2222222222222222-------------------|

G|-----------------------------------------------------------------------|
D|-----------------------------------------------------------------------|
A|1-1-11-1-11-1-------------------------44444444/(16's)-1616161616161616-|
E|--------------1-1-11-11-1--2-2-2-22-2----------------------------------|

G|------------------------------------------------------------------------|
D|------------------------------------------------------------------------|
A|-------------------88888888-10101010-11's-11111111--------------------4-|

Almost there ...

Sign in to get your own page with links to favourite songs and more. You are just one click away...

Login with Facebook Login with Google