Log in

One click and you are in

Login with Facebook Login with Google

Why sign up and log in

Guitar Tabs Explorer
Jonas Brothers bass tabs for Burnin up

Bass tabs

ok this is my first tab ever so be nice

Jonas Brothers
Burnin' Up

Standard tuning (EADG)
~ let ring


Intro (Im hot, your cold...)  _________1 _______2
G----------------------------------------||--------|
D-------------0---0-0--------------------.|--------|
A----2---2-2-----------0---0-0-----------.|--------|
E-------------------------------3---3-3--||----3~--|
                   repeat


Chorus 1  The Rythem is complex so listen to the song to find out
G----------------------------------------|
D----------0-0-0-0-----------------------|
A--2-2-2-2---------0-0-0-0---------------|
E--------------------------3-3-3-3-------|
         repeat 2x


Verus 1              _______1 ________2
G----------------------------------------||--------|
D-------------0---0-0--------------------.|--------|
A----2---2-2-----------0---0-0-----------.|--------| end with
E-------------------------------3---3-3--||----3~--|
                 repeat 2x

Chours 2
G----------------------------------------|
D----------0-0-0-0-----------------------|
A--2-2-2-2---------0-0-0-0---------------|
E--------------------------3-3-3-3-------|
         repeat 2x

REST for 4 measures

Chours 3
G----------------------------------------|
D----------0-0-0-0-----------------------|
A--2-2-2-2---------0-0-0-0---------------|
E--------------------------3-3-3-3-------|
         repeat 2x

Almost there ...

Sign in to get your own page with links to favourite songs and more. You are just one click away...

Login with Facebook Login with Google